Cifra Club

Aprenda

Mary Mary

The Monkees

Cifra: Principal (violão e guitarra)
tom: G
Tuning: Standard
Transcribed by Soch Hean

Intro Riff:
|-10--10--10--10--7-7-7-7------------------|----------7---------|
|-10--10--10--10--7-7-7-7-9b10=------------|----------7---------|
|--------------------------------9b11rp7---|*|
|------------------------------------------|------------------9-|
|------------------------------------------|--------------------|
|------------------------------------------|--------------------|

Verse:
B      E      B        E
Mary, Mary, where you goin' to?
B      E     B    E
Mary, Mary, can I go too

Bridge:
E         F#   E       F#
This one thing I will vow ya
E          F#           E    F#     B
I'd rather die than to live without ya

Chorus:
Mary, Mary, where you goin' to?
(0:34)
|-10--10--10--10--7-7-7-7--------------7---------7-------------|
|-10--10--10--10--7-7-7-7--------------7---------7-------------|
|*|
|-----------------------------------9--------------------9-----|
|--------------------------------------------------------------|
|--------------------------------------------------------------|

Verse 2:
B      E     B       E
Mary, Mary, tell me truly
B          E      B        E
What did I do to make you leave me
E           F#     E      F#
Whatever it was I didn't mean to

Bridge:
E           F#         E        F#
You know I never would try and hurt ya

Chorus:
Mary, Mary, where you goin' to?

|-10--10--10--10--7-7-7-7----------------7------------------------|
|-10--10--10--10--7-7-7-7----------------7------------------------|
|*|
|-------------------------------------9---------------------9-----|
|-----------------------------------------------------------------|
|-----------------------------------------------------------------|

F#               E
What more, Mary, can I do
    F#                E
To prove my love is truly yours?
     F#                    G#                 E  F#   B  E  B  E
I've done more now than a clear-thinkin' man would do


Verse 3:
B      E     B        E
Mary, Mary, it's not over
B          E  B       E
Where you go, I will follow
 E     F#        E     F#
'Til I win your love again
E           F#
And walk beside you
E          F#
But until then


Chorus:
Mary, Mary, where you goin' to?
|-10--10--10--10--7-7-7-7---------------------------------|
|-10--10--10--10--7-7-7-7---------------------------------|
|-------------------------9b11--9p7---7-9b11-9-7----------|
|-----------------------------------9------------9-7------|
|---------------------------------------------------------|
|---------------------------------------------------------|

Mary, Mary, where you goin' to?
|----------------|
|----------------|
|-/9-9--/9-9-----|
|-/9-9--/9-9-----|
|----------------|
|----------------|

Mary, where you goin' to?
|----------------|
|----------------|
|-/9-9--/9-9-----|
|-/9-9--/9-9-----|
|----------------|
|----------------|

Outro:
Mary, Mary, Mary, Mary, Mary, where you goin' to?
|----------------|
|----------------|
|-/9-9--/9-9-----|
|-/9-9--/9-9-----|
|----------------|
|----------------|

Chords:
E:    022100
F#:   244322
B:    x2444x
G#:   466544
Composição de Michael Nesmith
1.294 exibições
    • ½ Tom
    • A
    • Bb
    • B
    • C
    • Db
    • D
    • Eb
    • E
    • F
    • F#
    • G
    • Ab
  • Adicionar à lista

    0 comentários

    Ver todos os comentários

    Conseguiu tocar?

    0 Tocaram 0 Ainda não

    Grave um vídeo tocando Mary Mary e nos envie!

    00:00 / 00:00
    outros vídeos desta música
    repetir qualidade Automático
    Outros vídeos desta música
    00:00 / 00:00
    Automático

    Cifra Club Pro

    Aproveite o Cifra Club com benefícios exclusivos e sem anúncios
    Cifra Club Pro
    Aproveite o Cifra Club com benefícios exclusivos e sem anúncios
    OK