Cifra Club

Aprenda

She

The Monkees

Tab de baixo: Principal
Primeira Parte : (She..)

1----------------------------------------------------
2-----------------------------------------------------
3---------7-7--7-7--7-7--7-7--5-5--5-5--5-5--5-5-6--7-7 ... ( 2x )
4------------7----7-----7---7----5----5----5---------7

Segunda parte : ( Why I'm standing here...)

1----------------------------------------------------5-----
2---------------------------------7-8-8---8-8--8-8--8---8--5
3-------------777777777777-7-8-10------8-----8----8---------
4-----------------------------------------------------------

Terceira parte : (Hey,She only did me wrong...)

1------------------------------------------------------
2-------------------------------------------------------
3-------------7-7-7-7--4-4-4-4--7-7-7-7--4-4-4-5-7--7-7 ...( Primeira parte novamente) 
4----------------7-7------4-4-----7-7-----4------------7

( Segunda / Terceira Parte )


Quarta Parte : ( And now I know.. )

1-------------------------------------------------------------------------
2--------55-44-22-00-------222222---55-44-22-00---------------------------
3--------------------333333--------------------33333-55555--555-5-5-5-5-5-5 .. ( inversão final até solo)
4----------------------------------------------------------------5-5-5-5-5

Primeira parte (durante solo)

Segunda Parte 

Terceira parte 

Final:

1------------------------------------
2------------------------------------
3----------7-7--7-7--5-5--5-5-5-6-7-7  ( Até o fim.. )    
4-------------7----7----5------------7

Galera, espero ter ajudado é só ouvirem a musica e tentarem tocar no compasso
creio que irão pegar tranquilamente.. Abraço! :)
Composição de Michael Nesmith
Colaboração e revisão:
  • Rodrigo Amorim
290 exibições

0 comentários

Ver todos os comentários

Conseguiu tocar?

0 Tocaram 0 Ainda não

Grave um vídeo tocando She e nos envie!

00:00 / 00:00
outros vídeos desta música
repetir qualidade Automático
Outros vídeos desta música
00:00 / 00:00
Automático

Cifra Club Pro

Aproveite o Cifra Club com benefícios exclusivos e sem anúncios
Cifra Club Pro
Aproveite o Cifra Club com benefícios exclusivos e sem anúncios
OK