Cifra Club

Nocturna

Moonspell

Cifra: Principal (violão e guitarra)
Selo Cifra Club: esta cifra foi revisada para atender aos critérios oficiais da nossa Equipe de Qualidade.
tom: E
Intro
E|-----------------------------------------------|------------------------------------------------|
B|-15-15-15-15-15-15-15-15---15---15-15-15-15-15-|--13-13-13-13-13-13-13-13---13---13-13-13-13-13-|
G|-14-14-14-14-14-14-14-14---14---14-14-14-14-14-|--14-14-14-14-14-14-14-14---14---14-14-14-14-14-|
D|-12-12-12-12-12-12-12-12---12---12-12-12-12-12-|--12-12-12-12-12-12-12-12---12---12-12-12-12-12-|
A|-----------------------------------------------|------------------------------------------------|
E|-----------------------------------------------|------------------------------------------------|

E|-15-15-15-15-15-15-15-15---15---15-15-15-15-15-|--15-15-15-15-15-15-15---------------------------|
B|-17-17-17-17-17-17-17-17---17---17-17-17-17-17-|--18-18-18-18-18-18-18-13-12-13-12-13-12-13-12-13|
G|-14-14-14-14-14-14-14-14---14---14-14-14-14-14-|--14-14-14-14-14-14-14---------------------------|
D|-----------------------------------------------|-------------------------------------------------|
A|-----------------------------------------------|-------------------------------------------------|
E|-----------------------------------------------|-------------------------------------------------|
E|--------|
B|---------------------------------|----------------------------------| |
G|---------------------------------|----------------------------------| |
D|-7-7-7-7-7-7-7-7---7---7-7-7-7-7-|--5-5-5-5-5-5-5-5---5---5-5-5-5-5-| |
A|-7-7-7-7-7-7-7-7---7---7-7-7-7-7-|--7-7-7-7-7-7-7-7---7---7-7-7-7-7-| |
E|-5-5-5-5-5-5-5-5---5---5-5-5-5-5-|--5-5-5-5-5-5-5-5---5---5-5-5-5-5-| |
E|---------------------------------|----------------------------------| \
                                                                                 > x2
E|---------------------------------|-----------------------------------------| /
B|-8-8-8-8-8-8-8-8---8---8-8-8-8-8-|---8--8--8--8--8--8--8-------------------| |
G|-9-9-9-9-9-9-9-9---9---9-9-9-9-9-|--10-10-10-10-10-10-10-5-4-5-4-5-4-5-4---| |
D|-7-7-7-7-7-7-7-7---7---7-7-7-7-7-|---7--7--7--7--7--7--7-----------------7-| |
A|---------------------------------|-----------------------------------------| |
E|---------------------------------|-----------------------------------------| _|

Verse             x3
e||--13--12--10~--||--13--12--17~-|
B||---------------||--------------|
G||o-------------o||--------------| x2
D||o-------------o||--------------|
A||---------------||--------------|
E||---------------||--------------|

E|---------------------------------|----------------------------------|
B|---------------------------------|----------------------------------|
G|-7-7-7-7-7-7-7-7---7---7-7-7-7-7-|--5-5-5-5-5-5-5-5---5---5-5-5-5-5-|
D|-7-7-7-7-7-7-7-7---7---7-7-7-7-7-|--7-7-7-7-7-7-7-7---7---7-7-7-7-7-|
A|-5-5-5-5-5-5-5-5---5---5-5-5-5-5-|--5-5-5-5-5-5-5-5---5---5-5-5-5-5-|
E|---------------------------------|----------------------------------|

E|---------------------------------|-----------------------------------------|
B|-8-8-8-8-8-8-8-8---8---8-8-8-8-8-|---8--8--8--8--8--8--8-------------------|
G|-9-9-9-9-9-9-9-9---9---9-9-9-9-9-|--10-10-10-10-10-10-10-5-4-5-4-5-4-5-4---|
D|-7-7-7-7-7-7-7-7---7---7-7-7-7-7-|---7--7--7--7--7--7--7-----------------7-|
A|---------------------------------|-----------------------------------------|
E|---------------------------------|-----------------------------------------|

Chorus
E|-----------------|-----------------|-----------------|-----------------|
B|-----------------|-----------------|-----------------|-----------------|
G|-----------------|-----------------|-----------------|-----------------| x2
D|-4-4-4-4-4-4-4-4-|-7-7-7-7-2-2-2-2-|-----------------|-----------------|
A|-2-2-2-2-2-2-2-2-|-5-5-5-5-0-0-0-0-|-2-2-2-2-2-2-2-2-|-5-5-5-5-5-5-5-5-|
E|-----------------|-----------------|-0-0-0-0-0-0-0-0-|-3-3-3-3-3-3-3-3-|

Repeat Verse
Repeat Chorus

Solo (use Wah)
E|--------------------------------------------------------------------------|
B|--------------------------------------------------------------------------|
G|-77777777777777777-99999999999-12121212-99999-1010101010-1919191919191919-|
D|--------------------------------------------------------------------------|
A|--------------------------------------------------------------------------|
E|--------------------------------------------------------------------------|

E|------------------------------------------------------------------------------------|
B|------------------------------------------------------------------------------------|
G|-777777777-5555555-9999999-77777-1010101010101010-121212121212121212-14141414141414-|
D|------------------------------------------------------------------------------------|
A|------------------------------------------------------------------------------------|
E|------------------------------------------------------------------------------------|
Outros vídeos desta música
18 exibições
    • ½ Tom
    • A
    • Bb
    • B
    • C
    • Db
    • D
    • Eb
    • E
    • F
    • F#
    • G
    • Ab
  • Adicionar à lista

Afinação da cifra

Afinador online

    0 comentários

    Ver todos os comentários

    Entre para o Cifra Club PRO

    Tenha acesso a benefícios exclusivos no App e no Site

    • Chega de anúncios

    • Mais recursos no app do Afinador

    • Atendimento Prioritário

    • Aumente seu limite de lista

    • Ajude a produzir mais conteúdo

    Cifra Club Pro

    Aproveite o Cifra Club com benefícios exclusivos e sem anúncios
    Cifra Club Pro
    Aproveite o Cifra Club com benefícios exclusivos e sem anúncios
    OK