Cifra Club

Llamada Perdida

Morat

Cifra: Principal (violão e guitarra)
Selo Cifra Club: esta cifra foi revisada para atender aos critérios oficiais da nossa Equipe de Qualidade.
tom: A
[Intro] A7M(2)

[Tab - Intro]

   A7M(2)
E|------------------------------------------|
B|---------------0---0----------------------|
G|---2---1---1-----------2---2---2----------| (2x)
D|------------------------------------------|
A|-0---0---0---0---0---0---0---0------------|
E|------------------------------------------|

[Primeira Parte] 

[Tab - Primeira Parte]

   A7M(2)
E|------------------------------------------|
B|---------------0---0----------------------|
G|---2---1---1-----------2---2---2----------| (2x)
D|------------------------------------------|
A|-0---0---0---0---0---0---0---0------------|
E|------------------------------------------|

   D4+(6)
E|------------------------------------------|
B|---------------0---0----------------------|
G|---2---1---1-----------2---2---2----------| (2x)
D|-0---0---0---0---0---0---0---0------------|
A|------------------------------------------|
E|------------------------------------------|

A7M(2)
       Hoy tu recuerdo me volvió a doler

Hoy tu recuerdo me volvió a joder
             D4+(6)
Y eso no me va

Y eso no me va

                                    A
Salgo a la calle y empieza a llover
A7M(2)
       Va más de un mes viendo el amanecer
             D4+(6)
Y eso no me va

Y eso no me va a hacer bien

[Pré-Refrão 1] 

                        F#m
Porque también me hace falta 
      E             D
Resolver una inquietud
                     F#m
¿Cómo se olvida tan fácil 
        E          D
Como me olvidaste tú?

[Refrão] 

                      A
Quiero volverte a llamar
                     E
Que a la mañana siguiente
                F#m         E
Esa llamada perdida no se pierda
            D
Y tú la encuentres

                   A/C#
Yo no me voy a dormir
                     D
Hasta que tú te despiertes
                   D     E  F#m
Prefiero cinco llamadas perdidas
        E              D    
Cuatro cartas, tres heridas
         A/C#
Dos de suerte
         Bm          E
Que una vida sin volver a verte

( A7M(2) A )

[Segunda Parte] 


Volví a la puerta de ese mismo hotel
A  A7M(2)
   Otro cóctel en ese mismo bar
           D4+(6)
Solo para ver si podía aguantarme, pero

[Pré-Refrão 2] 

          F#m               D 
Soy masoquista mirando tus fotos
          A                  E
Quiero tomar hasta no poder ver
          F#m                 D
Ya me cansé de brindar por nosotros
             E
Si tú no vas a volver

[Refrão] 

                      A
Quiero volverte a llamar
                     G
Que a la mañana siguiente
        D    E  F#m         E
Esa llamada perdida no se pierda
            D
Y tú la encuentres

                   F#m
Yo no me voy a dormir
                     D
Hasta que tú te despiertes
                   D     E  F#m
Prefiero cinco llamadas perdidas
        E              D    
Cuatro cartas, tres heridas
         A/C#
Dos de suerte
         Bm          E
Que una vida sin volver 

         Bm          E
Que una vida sin volver
         D A/C#  Bm  A  E
Que una vida    sin volver a verte

[Final] A7M(2)  F#m9(11)  D4+(6)  E11

[Tab - Final]

   A7M(2)
E|------------------------------------------|
B|---------------0---0----------------------|
G|---2---1---1-----------2---2---2----------| (2x)
D|------------------------------------------|
A|-0---0---0---0---0---0---0---0------------|
E|------------------------------------------|
  
   F#m9(11)
E|------------------------------------------|
B|---------------0---0----------------------|
G|---2---1---1-----------2---2---2----------| (2x)
D|------------------------------------------|
A|------------------------------------------|
E|-2---2---2---2---2---2---2---2------------|

   D4+(6)
E|------------------------------------------|
B|---------------0---0----------------------|
G|---2---1---1-----------2---2---2----------|
D|-0---0---0---0---0---0---0---0------------|
A|------------------------------------------|
E|------------------------------------------|

   E11
E|------------------------------------------|
B|---------------0---0----------------------|
G|---2---1---1-----------2---2---2----------|
D|-2---2---2---2---2---2---2---2------------|
A|------------------------------------------|
E|------------------------------------------|
Outros vídeos desta música
    8.882 exibições
    • Simplificar cifra
      • ½ Tom
      • A
      • Bb
      • B
      • C
      • Db
      • D
      • Eb
      • E
      • F
      • F#
      • G
      • Ab
    • Adicionar à lista

    Afinação da cifra

    Afinador online

      0 comentários

      Ver todos os comentários

      Entre para o Cifra Club PRO

      Tenha acesso a benefícios exclusivos no App e no Site

      • Chega de anúncios

      • Badges exclusivas

      • Mais recursos no app do Afinador

      • Atendimento Prioritário

      • Aumente seu limite de lista

      • Ajude a produzir mais conteúdo

      Cifra Club Pro

      Aproveite o Cifra Club com benefícios exclusivos e sem anúncios
      Cifra Club Pro
      Aproveite o Cifra Club com benefícios exclusivos e sem anúncios
      Ops (: Contenido disponible sólo en portugués.
      OK