Cifra Club

Suedehead

Morrissey

Cifra: Principal (violão e guitarra)
Selo Cifra Club: esta cifra foi revisada para atender aos critérios oficiais da nossa Equipe de Qualidade.
tom: D
[Intro] A  Bm  G  Bm  E

                A7(4)
E|-------3--------------------------------------------------------|
B|-------3--------------------------------------------------------|
G|-------2--------------------------------------------------------|
D|-------2--------------------------------------------------------|
A|-------0--------------------------------------------------------|
E|----------------------------------------------------------------|

[Tab - Intro]

E|9-9-9------------12-12-12------------------------------------------|
B|------10-10-10/12---------12-12-12--12-10-----------------8/10-10--|
G|------------------------------------------12-12-9-12-12-9----------|
D|-------------------------------------------------------------------|
A|-------------------------------------------------------------------|
E|-------------------------------------------------------------------|

E|9-9-9------------12-12-12------------------------------------------|
B|------10-10-10/12---------12-12-12--12-10-----------------10-10/12-|
G|------------------------------------------12-12-9-12-12-9----------|
D|-------------------------------------------------------------------|
A|-------------------------------------------------------------------|
E|-------------------------------------------------------------------|

            D                 E                 D
Why do you come   here? And why,    why do you hang   around

F#m  E  D     E      F#m  E   D
I'm so sorry/ Ah.... I'm so so....rry

A            Bm                  G                      Bm                      A
 Why do you come here, when you know    it makes things hard for me, when you know
    Bm          G  Bm   E
Oh why do you come?
            D        E                      D
Why do you telephone? And why     send me silly  notes?

F#m  E   D   E  F#m        E   D
I'm so sorry/ Ah.... I'm so so....rry

A           Bm                   G                      Bm
 Why do you come here, when you know    it makes things hard for me, when you know

A   Bm           G  Bm
Oh why do you come?

( G  F#m  G  D )

E                         D
      You had to sneak into     my room 'just' to read my diary
        E                                                  D
It was just to see, just to see all the things you knew I'd written about   you?

And so many illustrations over
F#m  E        D        E   F#m   E           D
I'm so very sickened/ oh, I am so sickened now
         A             Bm             G                 Bm
It was a goog lay, goog lay/ It was a good lay, good lay
Outros vídeos desta música
    133.161 exibições
      • ½ Tom
      • A
      • Bb
      • B
      • C
      • Db
      • D
      • Eb
      • E
      • F
      • F#
      • G
      • Ab
    • Adicionar à lista

    Afinação da cifra

    Afinador online

      0 comentários

      Ver todos os comentários

      Conseguiu tocar?

      47Tocaram1Ainda não

      Grave um vídeo tocando Suedehead e nos envie!

      Toque também

      1. Imagem do artista The SmithsThere Is A Light That Never Goes Out The Smiths
      2. Imagem do artista New OrderBizarre Love Triangle New Order
      3. Imagem do artista SuedeTrash Suede
      4. Imagem do artista PulpCommon People Pulp

      Entre para o Cifra Club PRO

      Tenha acesso a benefícios exclusivos no App e no Site

      • Chega de anúncios

      • Badges exclusivas

      • Mais recursos no app do Afinador

      • Atendimento Prioritário

      • Aumente seu limite de lista

      • Ajude a produzir mais conteúdo

      Cifra Club Pro

      Aproveite o Cifra Club com benefícios exclusivos e sem anúncios
      Cifra Club Pro
      Aproveite o Cifra Club com benefícios exclusivos e sem anúncios
      OK