Cifra Club

Rift

Mortal

Cifra: Principal (violão e guitarra)
Selo Cifra Club: esta cifra foi revisada para atender aos critérios oficiais da nossa Equipe de Qualidade.
tom: D
E|----6-------6-------6------6------6-------6---|
B|---4-4-----4-4-----4-4----4-4----4-4-----4-4--|
G|-3-------3------3-------3------3-------3------|
D|3-------3------3-------3------3-------3-------|
A|----------------------------------------------|
E|----------------------------------------------|

(This plays through most of the song, except the parts where there are no guitar, and the bridge)

[Bridge]

E|-----------------------------------------------------|
B|-----------------------------------------------------|
G|-----------------------------------------------------|
D|3-3-3-3-3-3-3/6-6-6-6-6-6-6/1-1-1-1-1-1-1/8-8-8-8-8-9|
A|3-3-3-3-3-3-3/6-6-6-6-6-6-6/1-1-1-1-1-1-1/8-8-8-8-8-9|
D|3-3-3-3-3-3-3/6-6-6-6-6-6-6/1-1-1-1-1-1-1/8-8-8-8-8-9|
Outros vídeos desta música
    6 exibições
      • ½ Tom
      • A
      • Bb
      • B
      • C
      • Db
      • D
      • Eb
      • E
      • F
      • F#
      • G
      • Ab
    • Adicionar à lista

    Afinação da cifra

    Afinador online

      0 comentários

      Ver todos os comentários

      Entre para o Cifra Club PRO

      Tenha acesso a benefícios exclusivos no App e no Site

      • Chega de anúncios

      • Badges exclusivas

      • Mais recursos no app do Afinador

      • Atendimento Prioritário

      • Aumente seu limite de lista

      • Ajude a produzir mais conteúdo

      Cifra Club Pro

      Aproveite o Cifra Club com benefícios exclusivos e sem anúncios
      Cifra Club Pro
      Aproveite o Cifra Club com benefícios exclusivos e sem anúncios
      Ops (: Contenido disponible sólo en portugués.
      OK