Cifra Club

Revenge

Mortician

Cifra: Principal (violão e guitarra)
Selo Cifra Club: esta cifra foi revisada para atender aos critérios oficiais da nossa Equipe de Qualidade.
tom: C
  Riff 01 x2
E|-----------------------------------------------------|
B|-----------------------------------------------------|
G|-----------------------------------------------------|
D|----------------------3--------------------------3---|
A|-4-3---5/8---4-3--5-5-1-3----4-3---5/8---4-3-5-5-1-3-|
E|-2-1-0-3/6-0-2-1--3-3---1----2-1-0-3/6-0-2-1-3-3---1-|
        .     .      . . . .        .     .     . . . .

  Riff 02 x2
E|-----------------|
B|-----------------|
G|-----------------|
D|-----3-------3---|
 C|-5-5-1-3-5-5-1-3-|
G|-3-3---1-3-3---1-|
    . . . . . . . .


Then repeat Riff 01 x2


  Riff 03 x2
E|-----------------|----------------|----------------|
B|-----------------|----------------|----------------|
G|-----------------|----------------|----------------|
D|-----------------|----3-----------|------------3---|
A|-4-3---5-8---4-3-| 5-5-1-3-4-3---5-|8---4-3-5-5-1-3-|
E|-2-1-0-3-6-0-2-1-| 3-3---1-2-1-0-3-|6-0-2-1-3-3---1-|
    . . . . . . . .  . . . . . . . .  . . . . . . . .


Then repeat Riff 01 x2

Then repeat Riff 02 x2

Then repeat Riff 03 x2


  Riff 04 x2
E|------------------------------------------------|
B|------------------------------------------------|
G|------------------------------------------------|
D|----------------------------------------3-------|
A|-4---3-------5/8-------4---3----5---5---1---3---|
E|-2---1---0---3/6---0---2---1----3---3-------1---|
            .         .            .   .   .   .


Then repeat Riff 01 x2


  Fill
E|-----|
B|-----|
G|-----|
D|-----|
A|-2---|
E|-0---|
Outros vídeos desta música
      • ½ Tom
      • A
      • Bb
      • B
      • C
      • Db
      • D
      • Eb
      • E
      • F
      • F#
      • G
      • Ab
    • Adicionar à lista

    Afinação da cifra

    Afinador online

      0 comentários

      Ver todos os comentários

      Entre para o Cifra Club PRO

      Tenha acesso a benefícios exclusivos no App e no Site

      • Chega de anúncios

      • Mais recursos no app do Afinador

      • Atendimento Prioritário

      • Aumente seu limite de lista

      • Ajude a produzir mais conteúdo

      Cifra Club Pro

      Aproveite o Cifra Club com benefícios exclusivos e sem anúncios
      Cifra Club Pro
      Aproveite o Cifra Club com benefícios exclusivos e sem anúncios
      OK