Cifra Club

Eternally Yours

Motionless In White

Cifra: Principal (violão e guitarra)
tom: F#
[Intro] G#m  E  F# 
        G#m  E  F# 
        G#m  E  F# 
        G#m  E  F# 

E|--11--9--7-6-7-6--------------------------|
B|9-----------------7/11--------------------|
G|------------------------------------------|
D|------------------------------------------|
A|------------------------------------------|
E|------------------------------------------|

E|--11--9--7-6-7-11-11-7--------------------|
B|9-----------------------------------------|
G|------------------------------------------|
D|------------------------------------------|
A|------------------------------------------|
E|------------------------------------------|

E|--11-12-11-9-7-9-11-11--------------------|
B|9-----------------------------------------|
G|------------------------------------------|
D|------------------------------------------|
A|------------------------------------------|
E|------------------------------------------|

E|--11-12-11-9-11-12-12-11------------------|
B|9-----------------------------------------|
G|------------------------------------------|
D|------------------------------------------|
A|------------------------------------------|
E|------------------------------------------|

[Primeira Parte]

G#m                          F#m
  Blow the bridge to the past
Wipe the fingerprints
E
 Melt your heart encased in wax
F#
 Steal it with a kiss
G#m               F#             E
 Our fate engraved, scar enslaved

As we mutually destruct
G#m              F#                  E                  F#
  Repose, my love, I've sinned enough for the both of us

[Ponte]

E|------------------------------------------|
B|-5-4--------------------------------------|
G|------6-4---------------------------------|
D|------------------------------------------|
A|------------------------------------------|
E|------------------------------------------|
  G#m      F#
In the name of love

[Refrão]

             G#m
I'm ready to bury all of my bones
             F#
I'm ready to lie but say I won't
                  E
So tell me your secrets

And join me in pieces
                F#
To rot in this garden made of stones

Eternally yours

( G#m  E  F# )
( G#m  E  F# )

E|--11--9--7-6-7-6--------------------------|
B|9-----------------7/11--------------------|
G|------------------------------------------|
D|------------------------------------------|
A|------------------------------------------|
E|------------------------------------------|

E|--11--9--7-6-7-11-11-7--------------------|
B|9-----------------------------------------|
G|------------------------------------------|
D|------------------------------------------|
A|------------------------------------------|
E|------------------------------------------|

G#m          F#          E         F#
  I feed like you taught me and selflessly swallow
G#m              F#       E   
  We coalesce in darkness, so selfishly
F#
 So selfishly hollow
G#m                E   F#
 Examine the wreckage, writhing in tempo
G#m                                F#
 Invisible anguish casting a shadow
E           F#  
 And in the name of love

[Refrão]

             G#m
I'm ready to bury all of my bones
             F#
I'm ready to lie but say I won't
                  E
So tell me your secrets

And join me in pieces
                F#
To rot in this garden made of stones

Eternally yours

( E  F# ) 

G#m                       F#
As we rest in pieces, though I know not your name
  B9                                           F#
I would suffer forever to absolve all your pain

G#m         E  F#
  Eteranlly yours 
G#m         E  F#
  Eteranlly yours 
G#m         E  F#
  Eteranlly yours 
G#m         E  F#
  Eteranlly yours 

And in the name of love

[Refrão]

             G#m
I'm ready to bury all of my bones
             F#
I'm ready to lie but say I won't
                  E
So tell me your secrets

And join me in pieces
                F#
To rot in this garden made of stones

             G#m
I'm ready to bleed to make amends
             F#
And sleep in this dirt we call our bed
                  E
So tell me your secrets

And join me in pieces
                F#
To fall and rewrite the bitter end

Eternally yours
00:00 / 00:00
Outros vídeos desta música
Repetir
Outros vídeos desta música
Composição de Chris Motionless / Drew Fulk / Mick Kenney / Richard Olson
Colaboração e revisão:
  • André Luis
1.490 exibições
    • ½ Tom
    • A
    • Bb
    • B
    • C
    • Db
    • D
    • Eb
    • E
    • F
    • F#
    • G
    • Ab
  • Adicionar à lista

    0 comentários

    Ver todos os comentários

    Entre para oCifra Club PRO

    Tenha acesso a benefícios exclusivos no App e no Site

    • Chega de anúncios

    • Prioridade de compra em lançamentos

    • Mais recursos no app do Afinador

    • Atendimento Prioritário

    • Descontos nos produtos Cifra Club

    • Ajude a produzir mais conteúdo

    00:00 / 00:00

    Cifra Club Pro

    Aproveite o Cifra Club com benefícios exclusivos e sem anúncios
    Cifra Club Pro
    Aproveite o Cifra Club com benefícios exclusivos e sem anúncios
    OK