Cifra Club

Without You

Mötley Crüe

Cifra: Principal (violão e guitarra)
tom: Bb
Intro: F  Dm  F  Dm  G  A  Bb


E|---------------------------------------|
B|---------------------------------------|
G|--/12~--14-14/16~--/12~-14\12--14\9~---|
D|---------------------------------------|
A|---------------------------------------|
E|---------------------------------------|

E|---------------------------------------|
B|----13\12------------------------------|
G|---------12--9/12~---------------------|
D|---------------------------------------|
A|---------------------------------------|
E|---------------------------------------|

        F               Dm
Without you, there's no change
   F                   Dm
My nights and days are grey

     G                       A   Bb
If I reached out and touched the rain
                          F        Dm
It just wouldn't feel the same

        F           Dm
Without you, I'd be lost
    F                  Dm
I'd slip down from the top
    G          A  Bb
I'd slide down so low
                      F        Dm
Girl you never, never know...

Bb              A
    Without you, without you
  Ab             C
A sailor lost at sea
Bb                 A
    Without you, woman,
    Ab          Bb      C  F
The world comes down on me

        F          Dm
Without you in my life
    F               Dm
I'd slowly wilt and die
    G         A    Bb
But with you by my side
                      F      Dm
You're the reason I'm alive
    G           A   Bb
But with you in my life
                      F      Dm
You're the reason I'm alive
        G            A    Bb
But without you, without you...

(F  Dm  F  Dm  G  A  Bb)

        F               Dm
Without you, my hope is small
       F         Dm
Let me be me all along
        G          A  Bb
Let the fires rage inside
                         F       Dm
Knowing someday I'd grow strong

Bb              A
    Without you, without you
  Ab             C
A sailor lost at sea
Bb                 A
    Without you, woman,
    Ab          Bb      C  F
The world comes down on me

        F          Dm
Without you in my life
    F               Dm
I'd slowly wilt and die
    G         A    Bb
But with you by my side
                      F      Dm
You're the reason I'm alive
    G           A   Bb
But with you in my life
                      F      Dm
You're the reason I'm alive
        G            A    Bb
But without you, without you...

C                 G
   I could face a mountain
            Bb          F
But I could never climb alone
C                  G
     I could start another day
        Bb               F
But how many, just don't know

           C          G
You're the reason the sun shines down
        Bb                      F       C
And the nights, they don't grow cold
     C             G
Only you that I'll hold when I'm young
     Bb                F
Only you... as we grow old

Solo:
(Bb  A  Ab  C)(3x)
(Bb  A  Ab  Bb  Cm  Eb)


|---------------------------|---------------------------------|
|---------------------------|---------------------------------|
|-12--------11/12-----------|------------------------------2/-|
|---------------------12----|---14\12/14---12/14---14/16------|
|---------------------------|---------------------------------|
|---------------------------|---------------------------------|

|---------------------------|---------------------------------|
|---------------------------|---------------------------------|
|-12--------11/12-----------|---------------------------------|
|-----------------12--------|-14\12-14\12---12/14\12/14\12----|
|---------------------------|---------------------------------|
|---------------------------|---------------------------------|

|---------------------------/17/15-|-17\15-12/17--15-12---10------|
|-------12-13/15--13-12------------|------------------------------|
|---/12------------------12--------|------------------------------|
|----------------------------------|------------------------------|
|----------------------------------|------------------------------|
|----------------------------------|------------------------------|

|-20\19--------------20\19-20-22----|--/10/12--13/17==19||
|-------20-20-----------------------|--/11/13--15/18==20||
|-----------------------------------|-------------------||
|-----------------------------------|-------------------||
|-----------------------------------|-------------------||
|-----------------------------------|-------------------||


        F          Dm
Without you in my life
    F               Dm
I'd slowly wilt and die
    G         A    Bb
But with you by my side
                      F      Dm
You're the reason I'm alive

    G           A   Bb
But with you in my life
                      F      Dm
You're the reason I'm alive
        G            A    Bb
But without you, without you...
00:00 / 00:00
Outros vídeos desta música
Repetir
Outros vídeos desta música
Composição de Mick Mars / Nikki Sixx
Colaboração e revisão:
  • gabriel santos
  • Julia Culpi
2.349 exibições
    • ½ Tom
    • A
    • Bb
    • B
    • C
    • Db
    • D
    • Eb
    • E
    • F
    • F#
    • G
    • Ab
  • Adicionar à lista

    0 comentários

    Ver todos os comentários

    Conseguiu tocar?

    1 Tocaram 0 Ainda não

    Grave um vídeo tocando Without You e nos envie!

    00:00 / 00:00

    Cifra Club Pro

    Aproveite o Cifra Club com benefícios exclusivos e sem anúncios
    Cifra Club Pro
    Aproveite o Cifra Club com benefícios exclusivos e sem anúncios
    OK