Cifra Club

Green-Tinted Sixties Mind

Mr. Big

Cifra: Principal (violão e guitarra)
Selo Cifra Club: esta cifra foi revisada para atender aos critérios oficiais da nossa Equipe de Qualidade.
tom: A
Intro:
E|-------0h2p0------0h7h5p0------0h5h7t12h7p5--|-t17p10h12-t17p5h7-t16p4p0h4h7-t12/t16t\12p7p4---|
B|---------------------------------------------|-------------------------------------------------|
G|--------------4------------2h4---------------|-------------------------------------------------|
D|---------------------------------------------|-------------------------------------------------|
A|---------------------------------------------|-------------------------------------------------|
E|---------------------------------------------|-------------------------------------------------|

E|-t17p10h12-t17p5h7-t16p4p0h4h7-t12/t16\12p7p4|-------------------------------------------------|
B|---------------------------------------------|-------------------------------------------------|
G|---------------------------------------------|-------------------------------------------------|
D|---------------------------------------------|-------------------------------------------------|
A|---------------------------------------------|-------------------------------------------------|
E|---------------------------------------------|-------------------------------------------------|

            E       E4       D/E         E                     PM.........................A5
E|-----------------------|---------------------|---------------0-----------|---------------------|
B|--------9-------10v----|---------------------|-----------------0---------|---------0-----------|
G|--------9-------9v-----|---7----------9~~~~--|--1-----2~~---------2------|-------2------2------|
D|-----------------------|---7----------9~~~~--|--2-----2~~----------------|--------------2------|
A|-----------------------|---------------------|---------------------------|--2-----------0------|
E|------------x--------x-|-----------x---------|---------------------------|---------------------|
                                           (2x)

E   Esus4       D5       E5       E     Esus4
She just woke up, but she's still tired
D5        E5
Is that the telephone ringing ?
E    Esus4      D5       E5      E     Esus4
The curtains can't hold back the light
A9                D
That's reaching into her dreams
C#m7
Down in her heart
E          B                G            D
If it had fingers, it'll be tearing it apart

E
You'll be lookin' groovy
F#m
In a sixties movie
E                         A
Maybe tell the press you died
C#m7
Little legend baby
B                     A
Try your very best to hide
A            B         E
A green-tinted sixties mind

E     Esus4      D5        E5      E    Esus4
She keeps some memories locked away
D5         E5
But they are always escaping
E    Esus4      E5        D5      E   Esus4
Neglect won't make them fade away

A9               D
They're reaching into her dreams
C#m7
Down in her heart
E          B               G           D
Don't need fingers to be tearing it apart

E                                F#m
Gotta face the day, There is no other way
E                         A                          C#m7
To clear the fog inside your mind, Fill it up with dreams
B                  A                   A            B        E
But all that she can seem to find, A green-tinted sixties mind
Solo:
E|-------------------------------------------------------------------|
B|--9-10-9----------9-10-9----9-------9-10--9-------------9--10--9---|
G|----------9--------------9--9---9---------9--9----------9--9---9---|
D|----------------------------9---------------------------9--9---9---|
A|-------------------------------------------------------------------|
E|-------------0-0---------------------------------9--9--------------|

E|-----12b----------------------------------12b----------------------|
B|----------9-10-9------------9--10---9-----12b-----4--5--4-----4--5-|
G|--9---------------9---------9--9----9---9---------4--4--4--4--4--4-|
D|---------------------0--0------------------------------------------|
A|-------------------------------------------------------------------|
E|-------------------------------------------------------------------|

E|-------------------------------------------------------------------|
B|-4----4--5--4-------4--5--4------11-12-11-----11-12-11------11--12-|
G|-4----4--4--4-------4--4--4---------------11--11-11-11--11--11--11-|
D|----7----------6--------------5------------------------------------|
A|-------------------------------------------------------------------|
E|-------------------------------------------------------------------|

E|--11b-9-------------------9---12-14b-14----------------------------|
B|--------12-11------11-12-------------------------------------------|
G|--------------11---------------------------------------------------|
D|-------------------------------------------------------------------|
A|-------------------------------------------------------------------|
E|-------------------------------------------------------------------|

E                        F#m
Hangin' out with Janis, Movin' to Atlantis
E                          A    C#m7
Could've made it if you tried, What's the point of force?
B                 A             A              B      E
It's easy as a horse to ride, A green-tinted sixties mind

E                          F#m
You'll be looking groovy, In a sixties movie
E                          A   C#m7
Maybe tell the press you died, Little legend baby
B                  A             A            B      E
Try your very best to hide, A green-tinted sixties mind

         E5                                harm.                                D7            E
E|-----------------------|---------------------|----12~~-------------------|---------------------|
B|-----5-----------------|----------------12---|---------------------------|--14-14-14-14---12---|
G|-----4-----------------|---------------------|---------------------------|--14-14-14-14---13---|
D|-----2-----------------|---------------------|---------------------------|---------------------|
A|-----------------------|---------------------|---------------------------|---------------------|
E|-----------------------|---------------------|---------------------------|---------------------|
     E5                                                                      E#4    E/D     E/C#

                                         harm                                          pm.. pm..
E|-----------------------|---------------------|----12~~-------------------|---------------------|
B|----5------------------|-----------------12--|---------------------------|-10-10-10-9------9---|
G|----4------------------|---------------------|---------------------------|--9--9--9-9------9---|
D|----5------------------|---------------------|---------------------------|--9--9--9-9------9---|
A|-----------------------|---------------------|---------------------------|---------------------|
E|-----------------------|---------------------|---------------------------|------------10-10-10-|
    A(aad9)/C#  C#m7      E/B        B           Em/D    D                 E  riff 1
             p.m...                                                       p.m..   p.m...   p.m
E|-----------------------|---------------------|--7-7-7\--5---------------|---------------------|
B|--10-10-10-9-------9---|-9-9-9----7-7-7------|--8-8-8\--7---------------|------5--------------|
G|--9--9--9--9-------9---|-9-9-9----8-8-8------|--9-9-9\--7---------------|------4--------4-----|
D|--9--9--9--9-------9---|-9-9-9----9-9-9------|-----------------(14)\----|------2--------2-----|
A|-----------------------|---------------------|-----------------(14)\----|---------------------|
E|-------------9--9------|---------------------|--------------------------|--0-0----0--0------0-|
     F#                  E/G#           Amaj9                              C#m7 gtr2 tocar riff2
   pm...      pm..  pm.......    pm..                  harm........        pm...    pm...
E|-----------------------|---------------------|------------------12------|-------4--------4----|
B|--------2---------2----|-----5--------5---9--|----------------12--------|-------4--------4----|
G|--------3---4-----3----|-----4--------4---9--|--------------------------|-------4--------4----|
D|--------4---4-----4----|-----6--------6---9--|-----------7---------(11)\|-------6--------6----|
A|-----------------------|------------------0--|---------7-----------(11)\|--4-4-----4--4-------|
E|---2--2-------2-2----2-|-4--4-----4----------|--------------------------|---------------------|
     Bsus4 B  E/B   A#m7(b5)                     A5      B5                 E       Esus4
                                                          fim do riff 1
E|---------------4----4-|-------4--------------|--------------------------|---------------------|
B|----5-5-5-4----5----5-|-----------5----------|------------------10------|--9------10~~~~------|
G|----4-4-4-4----4----6-|---------------6\-----|--------------------------|--9-------9~~~~------|
D|----4-4-4-4---------6-|---------------6\-----|---2-------4--------------|---------------------|
A|----------------------|----------------------|---0-------2--------------|---------------------|
E|----------------------|----------------------|--------------------------|------x-----------x--|
       D/E       E                                                          A5        B5
                                  pm.........................
E|----------------------|-----------0----------|--------------------------|---------------------|
B|----------------------|--------------0-------|-----------0--------------|-------------9--10---|
G|------7---------9~~~--|-1---2~~--------2-----|--------2-----2-----------|---------------------|
D|------7---------9~~~--|-2---2~~--------------|--------------2-----------|---2-----4-----------|
A|----------------------|----------------------|----2---------0-----------|---0-----2-----------|
E|-----------x----------|----------------------|--------------------------|---------------------|
        E                                           C#m7
E|----------------------|----------------------|--------------------------|---------------------|
B|----9~~--------9--10--|--9~~----12~~----9-10-|--9~~-------------9---10--|--9------15b---9--10-|
G|---------9\-----------|------9-------9-------|--9~~--9\---------9----9--|--9------------------|
D|----------------------|----------------------|--------------------------|---------------------|
A|----------------------|----------------------|--------------------------|---------------------|
E|----------------------|----------------------|--------------------------|---------------------|
        E/D                                        B                 B/A              G#m7
E|----------------------|----------------------|----------------|----------------|--------------|
B|-----9~~---------9-10-|-9-----12\-----4--5---|--4--------4--5-|--4------4--5---|-4------4--5--|
G|-----------9\----9--9-|-9------9\-----4--4---|--4--------4--4-|--4------4--4---|-4------4--4--|
D|----------------------|------0---------------|------4---------|------4---------|-----6--------|
A|----------------------|----------------------|----------------|----------------|--------------|
E|----------------------|----------------------|----------------|----------------|--------------|
       G              F#                                    F#7
E|----------------|--------------------|--------------|-----------------------------------------|
B|---4-----11-12--|--11~~------11--12--|-11~---11--12-|16b(16)14h16p14-------------14-17b(17)17-|
G|---4------------|-------11---11--11--|-11~11-11--11-|----------------16-15--15-16-------------|
D|-----/13--------|--------------------|--------------|---------------------16------------------|
A|----------------|--------------------|--------------|-----------------------------------------|
E|----------------|--------------------|--------------|-----------------------------------------|
        E

E|-------0h2p0------0h7h5p0------0h5h7t12h7p5--|-t17p10h12-t17p5h7-t16p4p0h4h7-t12/t16t\12p7p4---|
B|---------------------------------------------|-------------------------------------------------|
G|--------------4------------2h4---------------|-------------------------------------------------|
D|---------------------------------------------|-------------------------------------------------|
A|---------------------------------------------|-------------------------------------------------|
E|---------------------------------------------|-------------------------------------------------|
                                                          D5    E5
E|-t17p10h12-t17p5h7-t16p4p0h4h7-t12/t16\12p7p4|-------(0)----(0)--------------------------------|
B|---------------------------------------------|-------------------------------------------------|
G|---------------------------------------------|-------------------------------------------------|
D|---------------------------------------------|-------------------------------------------------|
A|---------------------------------------------|-------------------------------------------------|
E|---------------------------------------------|-------------------------------------------------|

E|----------------|----------------|-----------|
B|----------------|----------------|-----------|
G|----------------|----------------|-----------|
D|----------------|----------------|-----------|
A|-----4~~~~~-----|--2--2--4----1--|-(1)~~~~~--|
E|----------------|----------------|-----------|

E|----------------|----------------|-----------|
B|----------------|----------------|-----------|
G|----------------|----------------|-----------|
D|----------------|----------------|-----------|
A|---4~~~~--4-----|-4~~2--4--2--1--|--(1)~~~~--|
E|----------------|----------------|-----------|

E|----------------|----------------|-----------|
B|----------------|----------------|-----------|
G|----------------|----------------|-----------|
D|----------------|----------------|-----------|
A|----------------|----------------|-----------|
E|-------0--------|-2--4--0--5-----|-5---------|

E|------------------------|--------------------|
B|------------------------|--------------------|
G|------------7--7----9---|--------------------|
D|------------7--7----9---|--------------------|
A|------------------------|--------------------|
E|------------------------|--------------------|
Outros vídeos desta música
    32.698 exibições
      • ½ Tom
      • A
      • Bb
      • B
      • C
      • Db
      • D
      • Eb
      • E
      • F
      • F#
      • G
      • Ab
    • Adicionar à lista

    Afinação da cifra

    Afinador online

      0 comentários

      Ver todos os comentários

      Entre para o Cifra Club PRO

      Tenha acesso a benefícios exclusivos no App e no Site

      • Chega de anúncios

      • Badges exclusivas

      • Mais recursos no app do Afinador

      • Atendimento Prioritário

      • Aumente seu limite de lista

      • Ajude a produzir mais conteúdo

      Cifra Club Pro

      Aproveite o Cifra Club com benefícios exclusivos e sem anúncios
      Cifra Club Pro
      Aproveite o Cifra Club com benefícios exclusivos e sem anúncios
      OK