Cifra Club

Aprenda

Shine

Mr. Big

Cifra: Principal (violão e guitarra)
Tom: A
Introdução 2x: E5  B11  A9

[Guitarra Base 1]

E|-0--------0---2---0-----------------------|
B|-5----4-----------0-----------------------|
G|-4----4-----------2----1b2r---1~----------|
D|-2----2-----------2----------------4------|
A|-2----2-----------0-----------------------|
E|-0----------------------------------------|

[Guitarra Base 2]

E|-7----------------0----0------------------|
B|-7------------7---5----5------------------|
G|-9----8---9-------6----6------------------|
D|-9----9-----------7----7------------------|
A|-7----7-----------0----0------------------|
E|------------------------------------------|


[Solo da Introdução]

E|-12-12-12-12-12-12-12-12-11-11-11-12-12-12-11-11-----|
B|-12-12-12-12-12-12-12-12-12-12-12-12-12-12-12-12-----|
G|-----------------------------------------------------|
D|-----------------------------------------------------|
A|-----------------------------------------------------|
E|-----------------------------------------------------|

E|-12-12-12-12-12-12-12-12-12-12-12--9--9--9-11-11-12--|
B|-12-12-12-12-12-12-12-12-12-12-12-12-12-12-12-12-12--|
G|-----------------------------------------------------|
D|-----------------------------------------------------|
A|-----------------------------------------------------|
E|-----------------------------------------------------|


[Primeira Parte]

[Guitarra Base 1]

E|------------------------------------------|
B|------------------------------------------|
G|------------------------------------------|
D|-4-----4---------4-----4---4br------------|
A|-2-----2---------2-----2---2br------------|
E|---0-0---0-0-0-0---0-0---0----------------|

E|------------------------------------------|
B|------------------------------------------|
G|-2-1-----2---------1-----2-----1----------|
D|-2-2-----2---------2-----2-----2----------|
A|-0---0-0---0-0-0-0---0-0---0-0---0--------|
E|------------------------------------------|

E|------------------------------------------|
B|------------------------------------------|
G|------------------------------------------|
D|-4-----4---------4-----4---4br------------|
A|-2-----2---------2-----2---2br------------|
E|---0-0---0-0-0-0---0-0---0----------------|

E|------------------------------------------|
B|------------------------------------------|
G|-2-1-----2---------1-----2----------------|
D|-2-2-----2---------2-----2-------2--4--2--|
A|-0---0-0---0-0-0-0---0-0---0-2h4----------|
E|------------------------------------------|


[Guitarra Base 2]

E|------------------------------------------|
B|------------------------------------------|
G|------------------------------------------|
D|-9-----9---------9-----9---9br\-----------|
A|-7-----7---------9-----9---9br\-----------|
E|---0-0---0-0-0-0-7-7-7-7-7-7br\-----------|

E|------------------------------------------|
B|------------------------------------------|
G|------------------------------------------|
D|---6-----7---------6-----7-----6----------|
A|---7-----7---------7-----7-----7----------|
E|---5-5-5-5-5-5-5-5-5-5-5-5-5-5-5-5--------|

E|------------------------------------------|
B|------------------------------------------|
G|------------------------------------------|
D|-9-----9---------9-----9---9br\-----------|
A|-7-----7---------9-----9---9br\-----------|
E|---0-0---0-0-0-0-7-7-7-7-7-7br\-----------|

E|---------------------------------------7--|
B|---------------------------------------7--|
G|---------------------------------------9--|
D|---6-----7---------6-----7-------------9--|
A|---7-----7---------7-----7-------7--9--7--|
E|---5-5-5-5-5-5-5-5-5-5-5-5-5-7h9----------|


E5[9]                 B5/E
      I never really feel quite right 
       A5
And I don't know why
       
All I know is something's wrong
E5[9]               B5/E
      Every time I look at you
          A5
You seem so alive

[Guitarra Base 1]

E|------------------------------------------|
B|------------------------------------------|
G|------4-4-4-4-4-4-4-4---------------------|
D|------------------------------------------|
A|------2-2-2-2-2-2-2-2---------------------|
E|------------------------------------------|

E|------------------------------------------|
B|------------------------------------------|
G|-6-6-6-6-6-6-6-6-9-9-9-9-9-9-9-9----------|
D|------------------------------------------|
A|-4-4-4-4-4-4-4-4-7-7-7-7-7-7-7-7----------|
E|------------------------------------------|

E|------------------------------------------|
B|------------------------------------------|
G|--2--------------2-2-2-2-2-2-2-2----------|
D|--2--------------2-2-2-2-2-2-2-2----------|
A|------------------------------------------|
E|--2--------------2-2-2-2-2-2-2-2----------|

E|------------------------------------------|
B|-0-0-0-0-0-0-0-0-0-0-0-0-0-0-0-0----------|
G|-2-2-2-2-2-2-2-2-4-4-4-4-4-4-4-4----------|
D|-2-2-2-2-2-2-2-2-4-4-4-4-4-4-4-4----------|
A|-0-0-0-0-0-0-0-0-2-2-2-2-2-2-2-2----------|
E|------------------------------------------|


[Guitarra Base 2]

E|-7----------------------------------------|
B|-7----------------------------------------|
G|-9----4-4-4-4-4-4-4-4---------------------|
D|-9----4-4-4-4-4-4-4-4---------------------|
A|-7----2-2-2-2-2-2-2-2---------------------|
E|------------------------------------------|

E|------------------------------------------|
B|------------------------------------------|
G|-6-6-6-6-6-6-6-6-9-9-9-9-9-9-9-9----------|
D|-6-6-6-6-6-6-6-6-9-9-9-9-9-9-9-9----------|
A|-4-4-4-4-4-4-4-4-7-7-7-7-7-7-7-7----------|
E|------------------------------------------|

E|--0----------12-------9-------------------|
B|-10-------10-------10---------------------|
G|-11----11---------------------------------|
D|-11---------------------------------------|
A|--9---------------------------------------|
E|------------------------------------------|

E|------------------------------------------|
B|-0-0-0-0-0-0-0-0-0-0-0-0-0-0-0-0----------|
G|-2-2-2-2-2-2-2-2-4-4-4-4-4-4-4-4----------|
D|-2-2-2-2-2-2-2-2-4-4-4-4-4-4-4-4----------|
A|-0-0-0-0-0-0-0-0-2-2-2-2-2-2-2-2----------|
E|------------------------------------------|

E9                  B4
   Tell me how you do it
           C#m7
Walk me through it
               E5
I'll follow in every footstep
 F#m7
Maybe on your own 

You take a cautious step
                A9
Till you wanna give it up
           B4
But all I want is for you to


[Refrão]

[Guitarra Base 2]

E|-----------------------------------------------------|
B|-----------------------------------------------------|
G|-9/11--11--13---16\----------------------------------|
D|-----------------------------------------------------|
A|-7/-9---9--11---14\----------------------------------|
E|-----------------------------------------------------|

E|-----------------------------------------------------|
B|-----------------------------------------------------|
G|-4--6--9--11-11-11/13\-------------------------------|
D|-----------------------------------------------------|
A|-2--4--7---9--9--9/11\-------------------------------|
E|-----------------------------------------------------|

E|-----------------------------------------------------|
B|-----------------------------------------------------|
G|-14-14-14-14-14-14-14-14-14-14-14-14-14-14-14-14-----|
D|-----------------------------------------------------|
A|-12-12-12-12-12-12-12-12-12-12-12-12-12-12-12-12-----|
E|-----------------------------------------------------|

  E5  B11
Shine
  A9
Shine down on me
  E5           B11                D6[9]
Shine on this life that's burnin' out


[Guitarra Riff]

   D6[9]
E|--0--0--0-0-0-0-0-0-0-0-0-0-0------------------------|
B|-10-10-10-9-9-9-5-5-5-5-5-5-5------------------------|
G|--7--7--7-7-7-7-7-7-7-7-7-7-7------------------------|
D|-----------------------------------------------------|
A|-----------------------------------------------------|
E|-----------------------------------------------------|


[Interlúdio] E5  B11  A9


[Segunda Parte]

E5[9]                  B5/E
      I say a lot of things sometimes 
            A5
That don't come out right
  
And I act like I don't know why
E5[9]             B5/E
      I guess a reaction's all 
       A5
I was lookin' for


E9             B4
   You look through me
             C#m7
You really knew me, like no one
    E5
Has ever looked before
 F#m7
Maybe on your own 

You take a cautious step
                A9
Till you wanna give it up
           B4
But all I want is for you to


[Refrão]

  E5  B11
Shine
  A9
Shine down on me
  E5           B11                A9
Shine on this life that's burnin' out 

I know, I know
Know you got somethin'

  E5  B11
Shine     [shine it on to me]
  A9
Shine down on me [I want to feel it]
  E5           B11                D6[9]
Shine on this life that's burnin' out

Solo: [ A9  B4 ]  C#m
      [ B9  C#m ]  D6[9]  C#m  F#m
      [ A9  B4 ]  C#m
      [ B9  C#m ]  D6[9]  C#m  B4  A9  G

E|-----------------------------------------------------|
B|-----------------------------------------------------|
G|-11/13--11-11\9--9--6-6\4--4/6--9--------------------|
D|-----------------------------------------------------|
A|--9/11---9--9\7--7--4-4\2--2/4--7--------------------|
E|-----------------------------------------------------|

E|-----------------------------------------------------|
B|-----------------------------------------------------|
G|-4-6-9-11/13--9-6--4---------------------------------|
D|----------------------4br--2-------------------------|
A|-2-4-7--9/11--7-4--2---------------------------------|
E|----------------------2br--0-------------------------|

E|-----------------------------------------------------|
B|-----------------------------------------------------|
G|-16/18\16--16--11/13\11--9-9-------------------------|
D|-----------------------------------------------------|
A|-14/16\14--14---9/11\-9--7-7-------------------------|
E|-----------------------------------------------------|

E|--------0--------0-----------------------------------|
B|--------0--------0-----------------------------------|
G|-4--4/6-9----4/6-9-----------------------------------|
D|-----------------------------------------------------|
A|-2--2/4-7----2/4-7-----------------------------------|
E|-----------------------------------------------------|

E|-----------------------------------------------------|
B|-10-10-10-10-10-10-10-10-7-7-7-7-5-5-5-5-------------|
G|--9--9--9--9--7--7--7--7-4-4-4-4-2-2-2-2-------------|
D|-----------------------------------------------------|
A|-----------------------------------------------------|
E|-----------------------------------------------------|

E|-3-3-3-3-3-3-3/-10-10-10/----------------------------|
B|-3-3-3-3-3-3-3/-10-10-10/----------------------------|
G|-0-0-0-0-0-0-0---------------------------------------|
D|-----------------------------------------------------|
A|-----------------------------------------------------|
E|-----------------------------------------------------|

E|-17---17--17-17---17--17-17---17---~-----------------|
B|-19---19--19-19---19--19-19---19---~-----------------|
G|-18b-b19-b19-18b-b19-b19-18b-b19r18~-----------------|
D|-----------------------------------------------------|
A|-----------------------------------------------------|
E|-----------------------------------------------------|
 

[Terceira Parte]

 F#m7
Maybe on your own 

You take a cautious step
                A9
Till you wanna give it up
           B4
But all I want is for you to


[Final]

  E5  B11
Shine
  A9
Shine down on me
  E5           B11
Shine on this life 
               A9
That's burnin' out 

  E5  B11
Shine
  A9
Shine down on me
  E5           B11
Shine on this life 
               A9
That's burnin' out
Composição de Richie Kotzen / Richie Zito
Colaboração e revisão:
66.954 exibições
    • ½ Tom
    • A
    • Bb
    • B
    • C
    • Db
    • D
    • Eb
    • E
    • F
    • F#
    • G
    • Ab
  • Adicionar à lista

    0 comentários

    Mostrar mais comentários

    Conseguiu tocar?

    12 Tocaram 1 Ainda não

    Grave um vídeo tocando Shine e mande pra gente!

    00:00 / 00:00
    outros vídeos desta música
    repetir qualidade Automático
    Outros vídeos desta música
    00:00 / 00:00
    Automático
    Capítulos
    • Tocando a música
    • Apresentação / Equipamentos
    • Afinação
    • Configuração
    • Acordes Introdução (guitarra 1)
    • Acordes Introdução (guitarra 2)
    • Tocando Introdução
    • Introdução - Guitarra Base 1
    • Introdução - Guitarra Base 2
    • Introdução - Guitarra Riff
    • Dicas e Acordes Primeira Parte
    • Tocando Primeira Parte
    • Primeira Parte - Guitarra Base 1
    • Primeira Parte - Guitarra Base 2
    • Dicas e Acordes do Refrão
    • Tocando Refrão
    • Refrão - Guitarra Base 1
    • Refrão - Guitarra Base 2
    • Refrão - Guitarra Riff
    • Dicas de repetição
    • Tocando Interlúdio ao Solo
    • Base do Solo - Guitarra base
    • Base do Solo - Guitarra Riff
    • Solo - Parte 1 de 3
    • Solo - Parte 2 de 3
    • Solo - Parte 3 de 3
    • Encerramento
    OK