Cifra Club

Aprenda

Mannish Boy

Muddy Waters

Cifra: Principal (violão e guitarra)
tom: A
[Intro] 

E|----------------------------------------------------|
B|-6/8~------5/3/1------------------------------------|
G|-------------------2--------------------------------|
D|----------------------------------------------------|
A|----------------------------------------------------|
E|----------------------------------------------------|

E|----------------------------------------------------|
B|----------------------------------------------------|
G|-7b9-----7b9r7p5------------------------------------|
D|------------------7---------------------------------|
A|----------------------------------------------------|
E|----------------------------------------------------|

E|----------------------------------------------------|
B|-----3/5---5/3------------8-------------------------|
G|-----------------------------7b9r7p5----------------|
D|-------------------------------------7--------------|
A|----------------------------------------------------|
E|----------------------------------------------------|

E|------------5---------------------------------------|
B|----------------------------------------------------|
G|-7b9r7p5--------------------------------------------|
D|---------7------------------------------------------|
A|----------------------------------------------------|
E|----------------------------------------------------|

(riff)

(guitarra 1)

   A5  D5      C5  A5               A5  D5      C5 A5
E|----------------------------------------------------|
B|----------------------------------------------------|
G|----------------------------------------------------|
D|-2---7-------5---2----------------2---7-------5---2-|
A|-0---5---0---3---0----------------0---5---0---3---0-|
E|----------------------------------------------------|

(guitarra 2)

   A5  D5    C5  A5 
E|----------------------------------------------------|
B|----------------------------------------------------|
G|------7---------------------------------------------|
D|-7----7----7---7------------------------------------|
A|-0-------------0------------------------------------|
E|----------------------------------------------------|

Everythin', everythin', everythin's gonna be alright this mornin'


[Primeira Parte]

A5 D5 C5 A5 
            Now when I was a young boy
A5 D5 C5 A5 
            At the age of five
A5 D5 C5 A5 
            My mother said I was
A5 D5 C5 A5 
            Gonna be the greatest man alive
A5 D5 C5 A5 
            But now I'm a man
A5 D5 C5 A5 
            Way past 21
A5 D5 C5 A5 
            Want you to believe me baby
A5 D5 C5 A5 
            I had lot's of fun
A5 D5 C5 A5 
            I'm a man
A5 D5 C5 A5 
            I spell mmm
A5 D5 C5 A5 
            Aaa child
A5 D5 C5 A5 
            Nnn
A5 D5 C5 A5 
            That represents man

[Segunda Parte]

A5 D5 C5 A5 
            No B
A5 D5 C5 A5 
            O child
A5 D5 C5 A5 
            Y
A5 D5 C5 A5 
            That mean mannish boy
A5 D5 C5 A5 
            I'm a man
A5 D5 C5 A5 
            I'm a full grown man
A5 D5 C5 A5 
            I'm a man
A5 D5 C5 A5 
            I'm a natural born lovers man
A5 D5 C5 A5 
            I'm a man
A5 D5 C5 A5 
            I'm a rollin' stone
A5 D5 C5 A5 
            I'm a man
A5 D5 C5 A5 
            I'm a hoochie coochie man

[Terceira Parte]

A5 D5 C5 A5 
            Sittin' on the outside
A5 D5 C5 A5 
            Just me and my mate
A5 D5 C5 A5 
            You know I'm made to move you honey
A5 D5 C5 A5 
            Come up two hours late
A5 D5 C5 A5 
            Wasn't that a man
A5 D5 C5 A5 
            I spell mmm, aaa child, nnn
A5 D5 C5 A5 
            That represents man
A5 D5 C5 A5 
            No B, O child, Y
A5 D5 C5 A5 
            That mean mannish boy
A5 D5 C5 A5 
            I'm a man
A5 D5 C5 A5 
            I'm a full grown man
A5 D5 C5 A5 
            Man
A5 D5 C5 A5 
            I'm a natural born lovers man
A5 D5 C5 A5 
            Man
A5 D5 C5 A5 
            I'm a rollin' stone
A5 D5 C5 A5 
            Man-child
A5 D5 C5 A5 
            I'm a hoochie coochie man
A5 D5 C5 A5 
            The line I shoot will never miss
A5 D5 C5 A5 
            When I make love to a woman
A5 D5 C5 A5 
            She can't resist
A5 D5 C5 A5 
            I think I go down
A5 D5 C5 A5 
            To old Kansas Stew
A5 D5 C5 A5 
            I'm gonna bring back my second cousin
A5 D5 C5 A5 
            That little Johnny Cocheroo
A5 D5 C5 A5 
            All you little girls
A5 D5 C5 A5 
            Sittin'out at that line
A5 D5 C5 A5 
            I can make love to you woman
A5 D5 C5 A5 
            In five minutes time
A5 D5 C5 A5 
            Ain't that a man
A5 D5 C5 A5 
            I spell mmm, aaa child, nnn
A5 D5 C5 A5 
            That represents man
A5 D5 C5 A5 
            No B, O child, Y
A5 D5 C5 A5 
            That mean mannish boy
A5 D5 C5 A5 
            Man
A5 D5 C5 A5 
            I'm a full grown man
A5 D5 C5 A5 
            Man
A5 D5 C5 A5 
            I'm a natural born lovers man
A5 D5 C5 A5 
            Man
A5 D5 C5 A5 
            I'm a rollin' stone
A5 D5 C5 A5 
            I'm a man-child
A5 D5 C5 A5 
            I'm a hoochie coochie man
A5 D5 C5 A5 
            Well, well, well, well
A5 D5 C5 A5 
            Hurry, hurry, hurry, hurry
A5 D5 C5 A5 
            Don't hurt me, don't hurt me child
A5 D5 C5 A5 
            Don't hurt me, don't hurt, don't hurt me child
A5 D5 C5 A5 
            Well, well, well, well

[Final]

                                    Bb7      A7
E|----------------------------------1--------0--------|
B|----------------------------------3--------2--------|
G|----------------------------------1--------0--------|
D|----------------------------------3--------2--------|
A|------4---4--5---5--6---6--7------1--------0--------|
E|---5------------------------------------------------|
Composição de Bo Diddley / Mel London / Muddy Waters
Colaboração e revisão:
  • Getúlio Vasconcelos
15.874 exibições
    • ½ Tom
    • A
    • Bb
    • B
    • C
    • Db
    • D
    • Eb
    • E
    • F
    • F#
    • G
    • Ab
  • Adicionar à lista

    0 comentários

    Ver todos os comentários

    Conseguiu tocar?

    4 Tocaram 0 Ainda não

    Grave um vídeo tocando Mannish Boy e nos envie!

    00:00 / 00:00
    outros vídeos desta música
    repetir qualidade Automático
    Outros vídeos desta música
    00:00 / 00:00
    Automático

    Cifra Club Pro

    Aproveite o Cifra Club com benefícios exclusivos e sem anúncios
    Cifra Club Pro
    Aproveite o Cifra Club com benefícios exclusivos e sem anúncios
    OK