Cifra Club

Dig

Mudvayne

Cifra: Principal (violão e guitarra)
Selo Cifra Club: esta cifra foi revisada para atender aos critérios oficiais da nossa Equipe de Qualidade.
tom: B
TUNING=DROP D,DOWN 1 1/2 STEPS B,F#,B,E,G#,C#

*Natural Harmonic

-|--------------------------------------------|
-|--------------------------------------------|
-|-----13------13-----------------------------|
-|-----9-------9------------------------------|3x
-|-0-0----0-0----0-0--------------------------|
-|-0-0----0-0----0-0--------------------------|
  Intro                                                                       

-|---------------------------------|
-|---------------------------------|
-|---------------------------------|
-|-0-7-8-0-7-8-0-7-8-0-5-0-3-5-3-0-|
-|-0-7-8-0-7-8-0-7-8-0-5-0-3-5-3-0-|
-|-0-7-8-0-7-8-0-7-8-0-5-0-3-5-3-0-|
  Main Riff

-|-----------------|
-|-----------------|
-|-----------------|
-|-----------------|
-|-2-3-2-0-2-0-3-2-|
-|-2-3-2-0-2-0-3-2-|
 Chorus                                                                   

-|-----------------|
-|-----------------|
-|-----------------|
-|-3-2-2-3-5-0-2-2-|
-|-3-2-2-3-5-0-2-2-|
-|-3-2-2-3-5-0-2-2-|
  Fill                                                                        

-|-------------|
-|-------------|
-|-------------|
-|-------------|
-|-3-----3-----|
-|---2-2---2-2-|
  Verse                                                                       

-|---------------------------------|
-|---------------------------------|
-|---------------------------------|
-|-3-2-2-3-2-2-3-2-2-3-2-2-3-2-0-0-|
-|-3-2-2-3-2-2-3-2-2-3-2-2-3-2-0-0-|
-|-3-2-2-3-2-2-3-2-2-3-2-2-3-2-0-0-|
  Bridge                                                                      

-|------------------------------------------|
-|------------------------------------------|
-|-14--12-----------------------------------|
-|-12--10---0-7-8-0-7-8-0-7-8-0-5-0-3-5-3-0-|
-|-12--10---0-7-8-0-7-8-0-7-8-0-5-0-3-5-3-0-|
-|-12--10---0-7-8-0-7-8-0-7-8-0-5-0-3-5-3-0-|
  Chorus                                                                      

-|--------------------------------------------|
-|--------------------------------------------|
-|-14--12--10---------------------------------|
-|-12--10---8-0-7-8-0-7-8-0-7-8-0-5-0-3-5-3-0-|
-|-12--10---8-0-7-8-0-7-8-0-7-8-0-5-0-3-5-3-0-|
-|-12--10---8-0-7-8-0-7-8-0-7-8-0-5-0-3-5-3-0-|
                                                                              

-|---------------|
-|---------------|
-|-14--12--10----|
-|-12--10---8--0-|
-|-12--10---8--0-|
-|-12--10---8--0-|
  Fill 2                                                                      

-|----------------------------|
-|----------------------------|
-|----------------------------|
-|----------------------------|
-|-8-0-2-3-2-0-8-0-2-3-2-0--0-|
-|-8-0-2-3-2-0-8-0-2-3-2-0--0-|
  Interlude {Palm Mute}                                                       

-|------------------------------------------|
-|------------------------------------------|
-|------------------------------------------|
-|------------------------------------------|
-|-3--2-0-2-0-2-3--2-0-2-0-3--2-0-2-0-0-3-3-|
-|-3--2-0-2-0-2-3--2-0-2-0-3--2-0-2-0-0-3-3-|
  Interlude 2                                                                 

-|----------------------------------------|
-|----------------------------------------|
-|-14-12-11-------------------------------|
-|-12-10--9-------------------------------|
-|-12-10--9--2p0-0-0--2p0-0-3p0-0-2p0-0-0-|
-|-12-10--9--2p0-0-0--2p0-0-3p0-0-2p0-0-0-|
  Interlude 3                                                                 

-|------------------------------------------|
-|------------------------------------------|
-|------------------------------------------|
-|------------------------------------------|
-|-2p0-0-3p0-0-2p0-0-0--2p0-0-3p0-0-2p0-0-0-|
-|-2p0-0-3p0-0-2p0-0-0--2p0-0-3p0-0-2p0-0-0-|
  Interlude 4                                                                 

-|------------------------------------------------------|
-|------------------------------------------------------|
-|------------------------------------------------------|
-|------------------------------------------------------|
-|-2p0-0-3p0-0-2p0-0-0-xx-10-2p0--0-3p0-0-2p0-0-0-xx-10-|
-|-2p0-0-3p0-0-2p0-0-0-xx-10-2p0--0-3p0-0-2p0-0-0-xx-10-|
  Interlude 5                                                                 

-|--------------------------------------------------------------|
-|--------------------------------------------------------------|
-|--------------------------------------------------------------|
-|--------------------------------------------------------------|
-|-00-0-0-0-0-32-0-0-10-32235020-0-0-3235-00-0-0-10-32235022----|
-|-00-0-0-0-0-32-0-0-10-32235020-0-0-3235-00-0-0-10-32235022----|
  Outro                                                         

-|-----------------------------------------------------|
-|-----------------------------------------------------|
-|-----------------------------------------------------|
-|-----------------------------------------------------|
-|-00-0-0-0-0-32-0-0-10-32235020-0-0-3235-00-0-0-10----|
-|-00-0-0-0-0-32-0-0-10-32235020-0-0-3235-00-0-0-10----|
  After Last Chord Get the FeedBack Going!!!

{Lyrics}

Cold seems crippling lame meander through corridors aroma's 
thick with age mark off the day reflections of my life are fading 

Pull me out of body don't want it don't want in,
Feeble frail and rotting descending I'm lost in,
A structure that's collapsing don't want it cast into,
Maker take the body don't want it wants me 

Past has found its place salvation is no more will god accept my 
peace bleached will pardon me reflections of my life are fading
Pull me out of body don't want it don't want in,
Feeble frail and rotting descending I'm lost in,
A structure that's collapsing don't want it cast into,
Maker take the body don't want it wants me 

I just want to run fly kites wrestle jump and play 
Swim through waves that crash to shore memories in me 
cocooned in misery 

I'm sick and tired of embracing reflections of past time receive
 me or cast me away 
...god please take me away 
resistance futile suicidal ideas I will crucify my own being satisfy 
selfish needs fuck the deities justify my own right to what's waiting for me 

On the other side the time has come lock and load I'm coming I'm coming 
I'm coming I'm coming home 

Pull me out of body don't want it don't want in,
Pull me out of body don't want it don't want in,
Pull me out of body don't want it don't want in,
Feeble frail and rotting descending I'm lost in,
A structure that's collapsing descending don't want it,
Maker take the body don't want it wants me,
Pull me out of body don't want it don't want in,
Feeble frail and rotting descending I'm lost in,
A structure that's collapsing descending don't want it,
Maker take the body don't want it wants me 

I just want to run fly kites wrestle jump and play 
Swim through waves that crash to shore memories in me 
cocooned in misery 
The darkness overcomes soul soars to the other plain 
Existence past the door I sail through purgatory's bay 

I asked a god for poison cradle me sown to my dreams souls searching death blossoms 
where clouds lie over me held in god's hands death blooming

Dark for fear of failure an inner gloom as wide as an eye 
and fermenting roiling hate death grip in my veins unveiling rancid petals 
flowering forth foul nectar the space between a blink and a tear 
...death blooms.
Outros vídeos desta música
    19.061 exibições
      • ½ Tom
      • A
      • Bb
      • B
      • C
      • Db
      • D
      • Eb
      • E
      • F
      • F#
      • G
      • Ab
    • Adicionar à lista

    Afinação da cifra

    Afinador online

      0 comentários

      Ver todos os comentários

      Entre para o Cifra Club PRO

      Tenha acesso a benefícios exclusivos no App e no Site

      • Chega de anúncios

      • Badges exclusivas

      • Mais recursos no app do Afinador

      • Atendimento Prioritário

      • Aumente seu limite de lista

      • Ajude a produzir mais conteúdo

      Cifra Club Pro

      Aproveite o Cifra Club com benefícios exclusivos e sem anúncios
      Cifra Club Pro
      Aproveite o Cifra Club com benefícios exclusivos e sem anúncios
      OK