Cifra Club

Happy?

Mudvayne

Cifra: Principal (violão e guitarra)
Tom: F
             F5   G#5  A#5
   Intro/Chorus(faça rapido):

|---------------------------------------------------------|
|---------------------------------------------------------|
|-7-7-7-7-12-12-12-12-12-12-12-12-12-12-12-12-12-12-12-12-|
|-5-5-5-5--x--x--x--x--x--x--x--x--x--x--x--x--x--x--x--x-|
|-5-5-5-5-10-10-10-10-10-10-10-10-10-10-10-10-10-10-10-10-|
|-5-5-5-5-------------------------------------------------|

|---------------------------------------------------------|
|---------------------------------------------------------|
|-1010101012-12-12-12-12-12-12-12-12-12-12-12-12-12-12-12-|
|-8-8-8-8--x--x--x--x--x--x--x--x--x--x--x--x--x--x--x--x-|
|-8-8-8-8-10-10-10-10-10-10-10-10-10-10-10-10-10-10-10-10-|
|-8-8-8-8-------------------------------------------------|

|---------------------------------------------------------|
|---------------------------------------------------------|
|-5-5-5-5-12-12-12-12-12-12-12-12-12-12-12-12-12-12-12-12-|
|-3-3-3-3--x--x--x--x--x--x--x--x--x--x--x--x--x--x--x--x-|
|-3-3-3-3-10-10-10-10-10-10-10-10-10-10-10-10-10-10-10-10-|
|-3-3-3-3-------------------------------------------------|

|----------------------------|
|----------------------------|
|----------------------------|
|-3-3-3---3-3-3--x-x-3p1-0-0-|
|-1-1-1---1-1-1--x-x-1-1-0-0-|
|-1-1-1---1-1-1--x-x-1-1-0-0-|

   Verse 1 & 2):
part 1
|---------------------------------------------------------------|
|---------------------------------------------------------------|
|-------5-------------5---------------10-------------10---------|
|-----5-----5-------------5---------8------8--------------8-----|
|---5---------5-----5-------5-----8----------8-----8--------8---|
|-5---------------5-----------5-8----------------8------------8-|

|------------------------------------------------------|
|------------------------------------------------------|
|-------5-------------5---------------3------------3~--|
|-----3-----3-------------3---------1-----1------1-----|
|---3---------3-----3-------3-----1---------1----------|
|-3--------------3------------3-1--------------1-------|

part 2
|-------------------------------------------------------------------|
|-------------------------------------------------------------------|
|-------------------------------------------------------------------|
|--------7-7-7-------7-7-7-----7-7---------7-7-7-------7-7-7-----7-7-|
|-5-5-5-5------5-5-5-------5-5-----8-8-8-8-------8-8-8-------8-8-----|
|-5-5-5-5------5-5-5-------5-5-----8-8-8-8-------8-8-8-------8-8-----|
pm.....................................................................

|-------------------------------------------------------------------|
|-------------------------------------------------------------------|
|-------------------------------------------------------------------|
|---------5-5-5-------5-5-5-----5-5---------5-5-5-------5-5-----5-5-|
|-3-3-3-3-------3-3-3-------3-3-----2-2-2-2-------2-2-2-----2-2-----|
|-3-3-3-3-------3-3-3-------3-3-----2-2-2-2-------2-2-2-----2-2-----|
pm.....................................................................

part 3 
|-------------------|
|-------------------|
|-----555----55--55-|
|-----xxx----xx--xx-|
|-33333333333333333-|
|-3333---3333--33---|

    chorus,
   Verse

part 3
|--------------------|
|--------------------|
|-121212121212121212-|
|-x-x-x-x-x-x-x-x-x--|
|-101010101010101010-|
|--------------------|

   chorus,
   
interlubio
|------------------------------|
|------------------------------|
|----------------------7/87---|
|-0~---13-12-0-12-0----x-x-x---|
|-0~---13-12-0-12-0----5/65---|
|-0~---13-12-0-12-0------------|

   Verse 3 (slower)
part 1 (sem distorção)
|---------------------------------------------------------------|
|---------------------------------------------------------------|
|-7-7-777-77-7710-10-101010-1010-10105-5-555-55-553-3-333-33-33-|
|-5-5-555-55-558--8--8-8-8--8-8--8-8-3-3-333-33-331-1-111-11-11-|
|-5-5-555-55-558--8--8-8-8--8-8--8-8-3-3-333-33-331-1-111-11-11-|
|-5-5-555-55-558--8--8-8-8--8-8--8-8-3-3-333-33-331-1-111-11-11-|

part 2 (faça rapido) (dist)
|-----------|-----------------|------------|------------------------------|
|-----------|-----------------|------------|------------------------------|
|-7-7-7-7-7-|--10-10-10-10-10-|--5-5-5-5-5-|------------------------------|
|-5-5-5-5-5-|--8--8--8--8--8--|--3-3-3-3-3-|--3-3-3---3-3-3--x-x-3p1-0-0--|
|-5-5-5-5-5-|--8--8--8--8--8--|--3-3-3-3-3-|--1-1-1---3-3-3--x-x-1-1-0-0--|
|-5-5-5-5-5-|--8--8--8--8--8--|--3-3-3-3-3-|--1-1-1---3-3-3--x-x-1-1-0-0--|

  chorus

   Outro
|--------------------------------------------------------|
|--------------------------------------------------------|
|--8888888888101010101010101010555555555555333333333333--|
|--5555555555-8-8-8-8-8-8-8-8-8333333333333111111111111--|
|--5555555555-8-8-8-8-8-8-8-8-8333333333333111111111111--|
|--5555555555-8-8-8-8-8-8-8-8-8333333333333111111111111--|
exibições 28.625
Acordes para:

    0 comentários

    mostrar mais comentários

    Conseguiu tocar?

    1 tocaram 0 ainda não

    Grave um vídeo tocando Happy? e mande pra gente!

    00:00 / 00:00
    outros vídeos desta música
    repetir qualidade Automático
    Outros vídeos desta música
    00:00 / 00:00
    Automático
    OK