Notificações Amigos pendentes

      Mudvayne

      World so cold

      18.169 exibições
      Tom: A
      cgcfad
      dadgbe
      eadgbe
      
      Tuning: Drop D, 1 Step Down (C,G,C,F,A,D)
      
      VERSE:
      
      |----------------------------------------------------------------------|
      |----------------------------------------------------------------------|
      |----------------------------------------------------------------------|
      |-10-10-10-10-10-10-10-10-10-10-9-9-9-9-7-9-7-7-7-7-7-7-7-7-7-7-7-9-9-9|
      |--0--0--0--0--0--0--0--0--0--0-0-0-0-0-0-0-0-0-0-0-0-0-0-0-0-0-0-0-0-0|
      |----------------------------------------------------------------------|
      
      
      |----------------------------------------------------------------------|
      |----------------------------------------------------------------------|
      |----------------------------------------------------------------------|
      |-10-10-5-5-5-5-5-5-5-5-5-5-5-5-5-5-5-5-5-5-5-5-5-5-5-5-5-5-5-5-7-7-7-7|
      |--0--0-3-3-3-3-3-3-3-3-3-3-3-3-3-3-3-0-3-3-3-3-3-3-3-3-3-3-3-3-5-5-5-5|
      |-------3-3-3-3-3-3-3-3-3-3-3-3-3-3-3-0-2-2-2-2-2-2-2-2-2-2-2-2-5-5-5-5|
      
      
      CHORUS:
      
      |--------------------------------------------------------|
      |--------------------------------------------------------|
      |----------------5-5-5-5\4-4-----------------5-5-5-5\4-4-|
      |-3-3--3-3--3-3--X-X-X-X-X-X--3-3--3-3--3-3--X-X-X-X-X-X-|
      |-3-3--3-3--3-3--3-3-3-3\2-2--3-3--3-3--3-3--3-3-3-3\2-2-|
      |-3-3--3-3--3-3---------------3-3--3-3--3-3--------------|
      
      
      |------------------------------------------------------|
      |------------------------------------------------------|
      |-------------------7-7-7---------------------12-12-12-|
      |-------------------X-X-X----------------------X--X--X-|
      |-0--0-2-3-2-0--/6--5-5-5--0--0-2-3-2-0---/6--10-10-10-|
      |-0--0-2-3-2-0--/6---------0--0-2-3-2-0---/6-----------|
      
      
      VERSE FILL:
      
      |----------------------------------------------------------------------|
      |----------------------------------------------------------------------|
      |----------------------------------------------------------------------|
      |-10-10-10-10-10-10-10-10-10-10-9-9-9-9-7-9-7-7-7-7-7-7-7-7-7-7-7-9-9-9|
      |--0--0--0--0--0--0--0--0--0--0-0-0-0-0-0-0-0-0-0-0-0-0-0-0-0-0-0-0-0-0|
      |----------------------------------------------------------------------|
      
      
      |---------|
      |---------|
      |-------0-|
      |-10-10-5-|
      |--0--0---|
      |---------|
      
      
      CHORUS FILL:
      
      |--------------------------------------------------------|
      |--------------------------------------------------------|
      |----------------5-5-5-5\4-4-----------------5-5-5-5\4-4-|
      |-3-3--3-3--3-3--X-X-X-X-X-X--3-3--3-3--3-3--X-X-X-X-X-X-|
      |-3-3--3-3--3-3--3-3-3-3\2-2--3-3--3-3--3-3--3-3-3-3\2-2-|
      |-3-3--3-3--3-3---------------3-3--3-3--3-3--------------|
      
      
      INTERLUDE:
      
      |-----------------------------------------------------------------|
      |-----------------------------------------------------------------|
      |--------------------5-5-5----------------------------------------|
      |-0-0-0--0--0-0-0-0--3-3-3-0--10-10-10--10--10-10-10-10--10-10-10-|
      |-0-0-0--0--0-0-0-0--3-3-3-0--10-10-10--10--10-10-10-10--10-10-10-|
      |-0-0-0--0--0-0-0-0--3-3-3-0--10-10-10--10--10-10-10-10--10-10-10-|
      
      
      |---------------------------------------------------------|
      |--------------------------------------10-10-----10-10----|
      |-----------12-12-12--------------------8--8-10---8--8-10-|
      |-10-10-10--12-12-12--7-7-7--10-10-10---8--8--8---8--8--8-|
      |--8--8--8--10-10-10--7-7-7---8--8--8---8--8--8---8--8--8-|
      |--8--8--8--10-10-10--7-7-7---8--8--8---8--8--8---8--8--8-|
      
      
      INTERLUDE 2:
      
      |--------------------------------------------------------------------|
      |----3---------------------------------------11-1111--13-1313--8-8-8-|
      |----2------------5-5--5--9-9-10-10-12-12-12-10-1010--12-1212--7-7-7-|
      |----0--3-2-3-2-0-5-5--5--X-X--X--X--X--X--X--8--8-8--10-1010--5-5-5-|
      |-0--0------------3-3--3--7-7--8--8-10-10-10--8--8-8--10-1010--5-5-5-|
      |-0--0----------------------------------------8--8-8--10-1010--5-5-5-|
      
      
      |---------------------|
      |-11-1111--10-1010-10-|
      |-10-1010---9--9-9--9-|
      |--8--8-8---7--7-7--7-|
      |--8--8-8---7--7-7--7-|
      |--8--8-8---7--7-7--7-|
      
      
      INTERLUDE 3:
      
      |--------------------------------------------------|
      |-666666666666666610101010101010101010121212121010-|
      |-5555555555555555-9-9-9-9-9-9-9-9-9-911111111-9-9-|
      |-3333333333333333-7-7-7-7-7-7-7-7-7-7-9-9-9-9-7-7-|
      |-3333333333333333-7-7-7-7-7-7-7-7-7-7-9-9-9-9-7-7-|
      |-3333333333333333-7-7-7-7-7-7-7-7-7-7-9-9-9-9-7-7-|
      
      
      |------------------------------------------------|
      |-6666666666666666-----------1010101010101010--3-|
      |-5555555555555555------------9-9-9-9-9-9-9-9--2-|
      |-3333333333333333------------7-7-7-7-7-7-7-7--0-|
      |-3333333333333333-9-10-9-10--7-7-7-7-7-7-7-7--0-|
      |-3333333333333333-9-10-9-10--7-7-7-7-7-7-7-7--0-|
      
      pm                 . .. . ..
      
      OUTRO:
      
      |----------------------------------------------------|
      |----------------------------------------------------|
      |----------------------------------------------------|
      |-3-3-3--3--3-3-3-3--3-3-3--7-7-7--7--7-7-7-7--7-7-7-|
      |-3-3-3--3--3-3-3-3--3-3-3--7-7-7--7--7-7-7-7--7-7-7-|
      |-3-3-3--3--3-3-3-3--3-3-3--7-7-7--7--7-7-7-7--7-7-7-|
      
      
      |------------------------------------------|
      |------------------------------------------|
      |------------------------------------------|
      |-3-3-3--3--3-3-3-3--3-3-3--7-7-7--7-7-0-0-|
      |-3-3-3--3--3-3-3-3--3-3-3--7-7-7--7-7-0-0-|
      |-3-3-3--3--3-3-3-3--3-3-3--7-7-7--7-7-0-0-|
      
        Composição: C. S. GrayColaboração e revisão:
        • MALAKIAN

        Comentários 0

        140 .
        140 cancelar

        conseguiu tocar?

        covers

        Grave um vídeo tocando World so cold e mande pra gente!

        Ex.: http://www.youtube.com/watch?v=0IvSvIwGdwk
        ver covers de outras músicas »
        0:00 / 0:00

        Capítulos

          2 versões de violão dificuldade exibições contribuição e correção
          2 versões de guitarra dificuldade exibições contribuição e correção
          2 versões de cavaco dificuldade exibições contribuição e correção
          2 versões de teclado dificuldade exibições contribuição e correção
          3 versões de baixo exibições contribuição e correção
          play/pausefechar subir/descer velocidade
          6ª corda E5ª corda A4ª corda D3ª corda G2ª corda B1ª corda E
            acordes
            publicidade
            fechar
            ok