Cifra Club

A Bela E O Fera

Munhoz & Mariano

Cifra: Principal
exibições 472.804
Tom: G
Intro: G Em7 C9 D


Primeira Parte:

G
Ela é mistério, cheia de segredos
Em7
Ele é bagunçado, cheio de defeitos
 C9                                     G  D
Toda noite cai na farra, ele toca o terror

G
Ir pra faculdade não ta nem aí
Em7
Ele ta formado em se divertir
  C9                                      D
E ela só nos livros, cineminha, e computador


Segunda Parte:

        C9        D        Em7
Quem diria que a Bela e a Fera
      Bm        C9
Formariam no final
           D
Um belo casal


Refrão:

 G                    Em7
Hoje ela frequenta o bar da faculdade
   C9                  D
Balada sertaneja e os pubs da cidade
  G                   Em7
E ele lê romance, vê filmes de terror
   C9            D
A Bela e o Fera, isso que é amor  (2x)

Base do Solo: G Em7 C9 D

Solo:

E|---5/7-5-----------5/7\5----------------------------|
B|---------10\8--5----------10\8----------------------|
G|-7---------------7----------------------------------|
D|----------------------------------------------------|
A|----------------------------------------------------|
E|----------------------------------------------------|

E|---8---8\---7---7\---5---5\---3/---5\---------------|
B|----------------------------------------------------|
G|-9---9\---7---7\---5---5\---4/---5\-----------------|
D|----------------------------------------------------|
A|----------------------------------------------------|
E|----------------------------------------------------|

E|---2/---3---5---3---2-------------------------------|
B|-------------------------3--3h5---------------------|
G|-2/---4---5---4---2---------------------------------|
D|-----------------------4----4/5---------------------|
A|----------------------------------------------------|
E|----------------------------------------------------|

Segunda Parte:

        C9        D        Em7
Quem diria que a Bela e a Fera
      Bm        C9
Formariam no final
           D
Um belo casal


Refrão Final:

 G                    Em7
Hoje ela frequenta o bar da faculdade
   C9                  D
Balada sertaneja e os pubs da cidade
  G                   Em7
E ele lê romance, vê filmes de terror
   C9            D
A Bela e o Fera, isso que é amor
 G                    Em7
Hoje ela frequenta o bar da faculdade
   C9                  D
Balada sertaneja e os pubs da cidade
  G                   Em7
E ele lê romance, vê filmes de terror

   C9            D            G  Em7
A Bela e o Fera, isso que é amor
   C9            D            G  Em7
A Bela e o Fera, isso que é amor
   C9            D            G
A Bela e o Fera, isso que é amor
Acordes para:

    0 comentários

      mostrar mais comentários

      Conseguiu tocar?

      72tocaram2ainda não

      Grave um vídeo tocando A Bela E O Fera e mande pra gente!

      00:00 / 00:00
      outros vídeos desta música
      repetirqualidadeautomática
      Outro vídeos desta música
        00:00 / 00:00
        automática
        Capítulos
        • Início
        • Capotraste
        • Tocando a música
        • Acordes da Introdução e Primeira Parte
        • Tocando Introdução e Primeira Parte
        • Ensinando Introdução e Primeira Parte
        • Acordes da Segunda Parte
        • Tocando Segunda Parte
        • Ensinando Segunda Parte
        • Tocando Refrão
        • Ensinando Solo do Refrão
        • Variações do Solo - Refrão Final
        • Encerramento
        OK