Cifra Club

Beberrão

Munhoz e Mariano

Cifra: Principal (violão e guitarra)
Tom: D
Intro: D9

D9           A                 D9
Nóis é beberrão, nóis é biscateiro
                   A                      D9
Nóis tem conta no bar, no açougue e no puteiro
             A                D9
Nóis é beberrão, nóis é biscateiro
                   A       G        A      D9
Nóis tem conta no bar, no açougue e no puteiro
     D9       A                    A         D9
E|--2-2-3-2-/9--9--10--10-10-9p10-5/7-7-7-5-2/3-3-3-2p3--|
B|--3-3-4-3-/10-10-12--12-12-10---7/8-8-8-7-3/4-4-4-3----|
G|-------------------------------------------------------|   (2x)
D|-------------------------------------------------------|
A|-------------------------------------------------------|
E|-------------------------------------------------------|

D9           A                 D9
Nóis é beberrão, nóis é biscateiro
                   A                      D9
Nóis tem conta no bar, no açougue e no puteiro
             A                D9
Nóis é beberrão, nóis é biscateiro
                   A                       D9 A G A D9
Nóis tem conta no bar, no açougue e no puteiro

D9
Nóis vamo levando a vida
                  A
Com garra e a coragem

Do jeito que vir nóis come
                     D9
Miséria pouca é bobagem
                       D7
Nóis sobe no pau que canta
                      G
A gente não tem frescura
                         A
Nóis sorta mesmo a gargante
                      D9
Nóis fuma e bebe da pura

D9           A                 D9
Nóis é beberrão, nóis é biscateiro
                     A                      D9
Nóis tem conta no bar, no açougue e no puteiro
               A                D9
Nóis é beberrão, nóis é biscateiro
                     A                       D9
Nóis tem conta no bar, no açougue e no puteiro
     D9       A                    A         D9
E|--2-2-3-2-/9--9--10--10-10-9p10-5/7-7-7-5-2/3-3-3-2p3--|
B|--3-3-4-3-/10-10-12--12-12-10---7/8-8-8-7-3/4-4-4-3----|
G|-------------------------------------------------------|   (2x)
D|-------------------------------------------------------|
A|-------------------------------------------------------|
E|-------------------------------------------------------|

D9                                           A
Nóis tem a rusticidade como herança de familia

Dois mais Dois com nóis é quatro
                      D9
Nóis cutuca é na virilha
                         D7
Nóis gosta mesmo é da farra
                  G
De domingo à domingo
                  A                        D9
Cerveja e mulherada chama que a gente ta indo

D9           A                 D9
Nóis é beberrão, nóis é biscateiro
                     A                      D9
Nóis tem conta no bar, no açougue e no puteiro
               A                D9
Nóis é beberrão, nóis é biscateiro
                     A                       D9
Nóis tem conta no bar, no açougue e no puteiro
    D9       A                    A         D9
E|--2-2-3-2-/9--9--10--10-10-9p10-5/7-7-7-5-2/3-3-3-2p3--|
B|--3-3-4-3-/10-10-12--12-12-10---7/8-8-8-7-3/4-4-4-3----|
G|-------------------------------------------------------|   (2x)
D|-------------------------------------------------------|
A|-------------------------------------------------------|
E|-------------------------------------------------------|

D9                                           A
Nóis tem a rusticidade como herança de familia

Dois mais Dois com nóis é quatro
                      D9
Nóis cutuca é na virilha
                         D7
Nóis gosta mesmo é da farra
                  G
De domingo à domingo
                  A                        D9
Cerveja e mulherada chama que a gente ta indo

D9           A                 D9
Nóis é beberrão, nóis é biscateiro
                     A                      D9
Nóis tem conta no bar, no açougue e no puteiro
               A                D9
Nóis é beberrão, nóis é biscateiro
                     A                       D9
Nóis tem conta no bar, no açougue e no puteiro

sobe 1 (um) tom

E9           B                 E9
Nóis é beberrão, nóis é biscateiro
                    B                      E9
Nóis tem conta no bar, no açougue e no puteiro
              B                E9
Nóis é beberrão, nóis é biscateiro
                    B      A        B      E9
Nóis tem conta no bar, no açougue e no puteiro
     E9       B                               A   E9
E|--4-4-5-4-/11-11-12-11p12-7/9--9--9--11-9--7-5-4-------|
B|--5-5-7-5-/12-12-14-12----9/10-10-10-12-10-9-7-5-------|
G|-------------------------------------------------------|
D|-------------------------------------------------------|
A|-------------------------------------------------------|
E|-------------------------------------------------------|

exibições 25.276
Acordes para:
    Composição: Munhoz / Mariano Colaboração e revisão:
    • Maycon Oliveira

    0 comentários

    mostrar mais comentários

    Conseguiu tocar?

    0 tocaram 0 ainda não

    Grave um vídeo tocando Beberrão e mande pra gente!

    00:00 / 00:00
    outros vídeos desta música
    repetir qualidade Automático
    Outros vídeos desta música
    00:00 / 00:00
    Automático
    OK