Cifra Club

Feeling Good

Muse

Cifra: Principal (violão e guitarra)
tom: F
Intro: Ebsus2/C  Gm

Guitarra I

        W.              E  E E E E E E E E E E E   E  E E E E E E E E E E E
E|-^-6-------------|--------------------------|---------------------------||
B|-^-6-------------|--------------------------|---------------------------||
G|-^-8-------------|-3--3-3-3-3-3-3-3-3-3-3-3-|-3--3-3-3-3-3-3-3-3-3-3-3--||
D|-^10-------------|-5--5-5-5-5-5-5-5-5-5-5-5-|-5--5-5-5-5-5-5-5-5-5-5-5--||
A|-----------------|--------------------------|---------------------------||
E|-----------------|--------------------------|---------------------------||

Guitarra II

     W.              W.                         W.
E|-----------------|--------------------------|---------------------------||
B|-^-5-------------|--------------------------|---------------------------||
G|-^-4-------------|--------------------------|---------------------------||
D|-^-5-------------|--------------------------|---------------------------||
A|-^-5-------------|--------------------------|---------------------------||
E|-^-3-------------|--------------------------|---------------------------||

Verso:

    $
    Gm/D                            Gm/D
       E  E E  E  E E E  E E  E  E E   E  E E  E  E E E  E E E E E
E|--------------------------------|-----------------------------|
b|o-------------------------------|-----------------------------|
G|--3--3-3--3--3-3-3--3-3--3--3-3-|-3--3-3--3--3-3-3--3-3-3-3-3-|
D|--5--5-5--5--5-5-5--5-5--5--5-5-|-5--5-5--5--5-5-5--5-5-5-5-5-|
a|o-5--5-5--5--5-5-5--5-5--5--5-5-|-5--5-5--5--5-5-5--5-5-5-5-5-|
E|--------------------------------|-----------------------------|
 
     Q.     +Q    E Q.     +Q    E   Q.     +Q    E Q.     E E E
E|--------------------------------|-----------------------------|
b|o-0------(0)---0----------------|-----------------------------|
G|-----------------3------(3)---3-|-1------(1)---1-0------3-0-3-|
D|--------------------------------|-----------------------------|
a|o-------------------------------|-----------------------------|
E|--------------------------------|-----------------------------|

   Gm/D                            Gm/D           Dsus4  F/D
      E  E E  E  E E E  E E  E  E E   E  E E  E  E E E  E E E  E E
E|-------------------------------|------------------------------|
B|-------------------------------|------------------------------|
G|-3--3-3--3--3-3-3--3-3--3--3-3-|-3--3-3--3--3-3-2--2-2-2--2-2-|
D|-5--5-5--5--5-5-5--5-5--5--5-5-|-5--5-5--5--5-5-5--5-5-3--3-3-|
A|-5--5-5--5--5-5-5--5-5--5--5-5-|-5--5-5--5--5-5-5--5-5-5--5-5-|
E|-------------------------------|------------------------------|
 
   Q.     +Q    E Q.     +Q    E   Q.     +Q    E Q.     Q.
E|-------------------------------|------------------------------|
B|-0------(0)---0----------------|------------------------------|
G|----------------3------(3)---3-|-1------(1)---1-0------0------|
D|-------------------------------|------------------------------|
A|-------------------------------|------------------------------|
E|-------------------------------|------------------------------|

   Gm/Bb          Bb               Gm6            Eb/G
      E  E E  E  E E E  E E  E  E E   E  E E  E  E E E  E E  E  E E
E|-3--3-3--3--3-3-1--1-1--1--1-1-|-------------------------------|
B|-3--3-3--3--3-3-3--3-3--3--3-3-|-5--5-5--5--5-5-4--4-4--4--4-4-|
G|-3--3-3--3--3-3-3--3-3--3--3-3-|-3--3-3--3--3-3-3--3-3--3--3-3-|
D|-------------------------------|-5--5-5--5--5-5-5--5-5--5--5-5-|
A|-------------------------------|-------------------------------|
E|-------------------------------|-------------------------------|
 
    Q.     +Q    E Q.     +Q    E   Q.     +Q    E Q.     +Q    E
E|-------------------------------|-------------------------------|
B|-0------(0)---0----------------|-------------------------------|
G|----------------3------(3)---3-|-2------(2)---2-1------(1)---1-|
D|-------------------------------|-------------------------------|
A|-------------------------------|-------------------------------|
E|-------------------------------|-------------------------------|

   Bb/G                           Bb/G           D5/G
      E  E E  E  E E E E  E  E E E   E  E E  E  E E E  E E E E E
E|------------------------------|-----------------------------|
B|-3--3-3--3--3-3-3-3--3--3-3-3-|-3--3-3--3--3-3-3--3-3-3-3-3-|
G|-3--3-3--3--3-3-3-3--3--3-3-3-|-3--3-3--3--3-3-2--2-2-2-2-2-|
D|-5--5-5--5--5-5-5-5--5--5-5-5-|-5--5-5--5--5-5-5--5-5-5-5-5-|
A|------------------------------|-----------------------------|
E|------------------------------|-----------------------------|
 
   Q.     +Q    E Q   +Q.     E   Q.     +Q    E H.
E|------------------------------|-----------------------------|
B|------------------------------|-----------------------------|
G|-0------(0)---0---------------|-----------------------------|
D|----------------3---(3)-----3-|-1------(1)---1-0------------|
A|------------------------------|-----------------------------|
E|------------------------------|-----------------------------|
                            1.
   Bb/G           D5/G        Gm/D
      E  E E  E  E E e Q  Q.     E  E E  E  E E E  E E  E  E E
r|--------------------------|-------------------------------|
B|-3--3-3--3--3-3-3---------|-------------------------------|
G|-3--3-3--3--3-3-2---------|-3--3-3--3--3-3-3--3-3--3--3-3-|
D|-5--5-5--5--5-5-5---------|-5--5-5--5--5-5-5--5-5--5--5-5-|
A|--------------------------|-5--5-5--5--5-5-5--5-5--5--5-5-|
E|--------------------------|-------------------------------|
 
    Q.     +E  E E e Q  Q.     Q.     +Q    E Q.     +Q    E
E|--------------------------|-------------------------------|
B|--------------------------|-0------(0)---0----------------|
G|--------------------------|----------------3------(3)---3-|
D|------------3-4-5---------|-------------------------------|
A|--------------------------|-------------------------------|
E|-1------(1)---------------|-------------------------------|

   Gm/D
      E  E E  E  E E E  E E E E E
E|------------------------------||
B|-----------------------------o||
G|-3--3-3--3--3-3-3--3-3-3-3-3--||
D|-5--5-5--5--5-5-5--5-5-5-5-5--||
A|-5--5-5--5--5-5-5--5-5-5-5-5-o||
E|------------------------------||
 
    Q.     +Q    E Q.     E E E
E|------------------------------||
B|-----------------------------o||
G|-1------(1)---1-0------3-0-3--||
D|------------------------------||
A|-----------------------------o||
E|------------------------------||

  2.
   G5                        Em/G
   Q.   E E E E  E E E E E   E  E E a Q  a E +H.
E|-------------------------|------------------------||
B|------------3----3---3---|------------------------||
G|--------3-5----5---5---5-|-3----------------------||
D|--------5---5------5-5-5-|----5-5-3h5--3h5-(5)----||
A|-------------------------|------------------------||
E|-------------------------|------------------------||
 
   H.         H.             H.               H.
E|-3----------4------------|-5----------------4-----||
B|-0----------0------------|-0----------------0-----||
G|-------------------------|------------------------||
D|-------------------------|------------------------||
A|-------------------------|------------------------||
E|-------------------------|------------------------||

 Verso:

   N.C.
   Guitarra III
      W.              H.      E E E Q  E
E|---------------|--------------------|
B|---------------|--------------------|
G|---------------|-------------3-5--6-|
D|---------------|-----------5--------|
A|---------------|--------------------|
E|---------------|--------------------|

   N.C.
   W.              W.
E|---------------|-------|
B|-3-------------|-------|
G|---------------|-------|
D|---------------|-------|
A|---------------|-------|
E|---------------|-------|

   N.C.
      Q.   E E E Q.   +Q   E   H.      Q.   E E E
E|----------1-3----(3)----|--------------------|
B|--------3-------------3-|-4--------------1-3-|
G|------------------------|----------------3---|
D|------------------------|--------------------|
A|------------------------|--------------------|
E|------------------------|--------------------|

   N.C.
   Q.   +Q   E Q.   Q.     W.
E|-------------3---------|-------|
B|-3----(3)--3-----------|-------|
G|-----------------------|-------|
D|-----------------------|-------|
A|-----------------------|-------|
E|-----------------------|-------|

   Gm/D                            Gm/D
   Guitarra I
      E  E E  E  E E E  E E  E  E E   E  E E  E  E E E  E E E E E
E|-------------------------------|-----------------------------|
B|-------------------------------|-----------------------------|
G|-3--3-3--3--3-3-3--3-3--3--3-3-|-3--3-3--3--3-3-3--3-3-3-3-3-|
D|-5--5-5--5--5-5-5--5-5--5--5-5-|-5--5-5--5--5-5-5--5-5-5-5-5-|
A|-5--5-5--5--5-5-5--5-5--5--5-5-|-5--5-5--5--5-5-5--5-5-5-5-5-|
E|-------------------------------|-----------------------------|
 
  Guitarra II
    Q.     +Q    E Q.     +Q    E   Q.     +Q    E Q.     E E E
E|-------------------------------|-----------------------------|
B|-0------(0)---0----------------|-----------------------------|
G|----------------3------(3)---3-|-1------(1)---1-0------3-0-3-|
D|-------------------------------|-----------------------------|
A|-------------------------------|-----------------------------|
E|-------------------------------|-----------------------------|

Ponte:

   &
   Bbsus2/G                     C/A
      E  E E E E E  E  E E E E E   E  E E E E E  E  E E E E E
E|----------------------------|-0--0-0-0-0-0--0--0-0-0-0-0-|
B|-1--1-1-1-1-1--1--1-1-1-1-1-|-1--1-1-1-1-1--1--1-1-1-1-1-|
G|-3--3-3-3-3-3--3--3-3-3-3-3-|-2--2-2-2-2-2--2--2-2-2-2-2-|
D|-5--5-5-5-5-5--5--5-5-5-5-5-|----------------------------|
A|----------------------------|----------------------------|
E|----------------------------|----------------------------|
 
    H.           +Q.     E E E   H.           +Q.     E E E
E|----------------------------|----------------------------|
B|----------------------------|----------------------------|
G|----------------------------|----------------------------|
D|-3------------(3)-----3-2-1-|----------------------------|
A|----------------------------|-5------------(5)-----5-3-2-|
E|----------------------------|----------------------------|

   F                             Gm/Eb
      E  E E E E E E  E E  E  E E   E  E E E E E E  E E E E E
E|-----------------------------|---------------------------|
B|-1--1-1-1-1-1-1--1-1--1--1-1-|-3--3-3-3-3-3-3--3-3-3-3-3-|
G|-2--2-2-2-2-2-2--2-2--2--2-2-|-3--3-3-3-3-3-3--3-3-3-3-3-|
D|-3--3-3-3-3-3-3--3-3--3--3-3-|-5--5-5-5-5-5-5--5-5-5-5-5-|
A|-----------------------------|-6--6-6-6-6-6-6--6-6-6-6-6-|
E|-----------------------------|---------------------------|
 
   H.           Q.     +E  E E   H.           H.
E|-----------------------------|---------------------------|
B|-----------------------------|---------------------------|
G|-----------------------------|---------------------------|
D|-----------------------------|---------------------------|
A|-----------------------------|---------------------------|
E|-6------------6------(6)-6-5-|-4------------4------------|

   D           D             D7          D7
   E E E E E E E E E E E E   E E E E E E  q  E Q.
E|-------------------------|------------------------|
B|-------------------------|-1-1-1-1-1-1--3---------|
G|-------------2-2-2-2-2-2-|-2-2-2-2-2-2--5---------|
D|-4-4-4-4-4-4-4-4-4-4-4-4-|-4-4-4-4-4-4--7---------|
A|-5-5-5-5-5-5-5-5-5-5-5-5-|-5-5-5-5-5-5--9---------|
E|-------------------------|-------------10---------|
 
   E E E E E E E E E E E E   E E E E E E  q  E Q.
E|-------------------------|------------------------|
B|-------------------------|------------------------|
G|-------------------------|------------------------|
D|-------------------------|------------------------|
A|-------------------------|------------------------|
E|-3-3-3-3-3-3-3-3-3-3-3-3-|-3-3-3-3-3-3--3---------|

Outro:

   D                               D
      E  E E  E  E E E  E E  E  E E   E  E E  E  E E E  E E E E E
E|-------------------------------|-----------------------------|
B|-------------------------------|-----------------------------|
G|----0-3-----0-3----0-3-----0-3-|----0-3-----0-3----0-3---0-3-|
D|-0-------0------0-------0------|-0-------0------0------0-----|
A|-------------------------------|-----------------------------|
E|-------------------------------|-----------------------------|
 
    Q.     +Q    E Q.     +Q    E   Q.     +Q    E Q.     E E E
E|-------------------------------|-----------------------------|
B|-0------(0)---0----------------|-----------------------------|
G|----------------3------(3)---3-|-1------(1)---1-0------3-0-3-|
D|-------------------------------|-----------------------------|
A|-------------------------------|-----------------------------|
E|-------------------------------|-----------------------------|

   D                               D
      E  E E  E  E E E  E E  E  E E   E  E E  E  E E E  E E E E E
E|-------------------------------|-----------------------------|
B|-------------------------------|-----------------------------|
G|----0-3-----0-3----0-3-----0-3-|----0-3-----0-3----0-3---0-3-|
D|-0-------0------0-------0------|-0-------0------0------0-----|
A|-------------------------------|-----------------------------|
E|-------------------------------|-----------------------------|
 
    Q.     +Q    E Q.     +Q    E   Q.     +Q    E Q.     E E E
E|-------------------------------|-----------------------------|
B|-0------(0)---0----------------|-----------------------------|
G|----------------3------(3)---3-|-1------(1)---1-0------3-0-3-|
D|-------------------------------|-----------------------------|
A|-------------------------------|-----------------------------|
E|-------------------------------|-----------------------------|

   D                               C
      E  E E  E  E E E  E E  E  E E   E  E E +E  E E E  E E  E  E E
E|----------------1------------1-|-------------------------------|
B|-------------------------------|-5----5-(5)---5------4-------4-|
G|----0-3-----0-3----0-3--0--3---|-3--0-3-(3)-3---0--3----0--3---|
D|-0-------0---------------------|-------------------------------|
A|-------------------------------|-------------------------------|
E|-------------------------------|-------------------------------|
 
    Q.     +Q    E Q.     +Q    E   Q.     +Q    E Q.     +Q    E
E|-------------------------------|-------------------------------|
B|-0------(0)---0----------------|-------------------------------|
G|----------------3------(3)---3-|-2------(2)---2-1------(1)---1-|
D|-------------------------------|-------------------------------|
A|-------------------------------|-------------------------------|
E|-------------------------------|-------------------------------|

   D                              D
   <
      E  E E  E  E E E E  E  E E E   E  E E  E  E E E  E E E E E
E|------------------------------|-----------------------------|
B|------------------------------|-----------------------------|
G|----0-3-----0-3---0--3----0-3-|----0-3-----0-3----0-3-----3-|
D|-0-------0------0-------0-----|-0-------0------0------0-4---|
A|------------------------------|-----------------------------|
E|------------------------------|-----------------------------|
 
   <
   Q.     +Q    E Q   +Q.     E   Q.     +Q    E H.
E|------------------------------|-----------------------------|
B|------------------------------|-----------------------------|
G|-0------(0)---0---------------|-----------------------------|
D|----------------3---(3)-----3-|-1------(1)---1-0------------|
A|------------------------------|-----------------------------|
E|------------------------------|-----------------------------|

   Bb/G        D5/G        N.C.
   E E E E E E q  E Q.     W.
E|-----------------------|-------*|
B|-3-3-3-3-3-3-3---------|-------*|
G|-3-3-3-3-3-3-2---------|-------*|
D|-5-5-5-5-5-5-5---------|-------*|
A|-----------------------|-------*|
E|-----------------------|-------*|
 
   E E E E E E q  E Q.     W.
E|-----------------------|-------*|
B|-----------------------|-------*|
G|-----------------------|-------*|
D|-3-3-3-3-3-4-5---------|-------*|
A|-----------------------|-3-----*|
E|-----------------------|-------*|
00:00 / 00:00
Outros vídeos desta música
Repetir
Outros vídeos desta música
Composição de Anthony Newley / Leslie Bricusse
Colaboração e revisão:
  • Ronaldo Silva
9.338 exibições
    • ½ Tom
    • A
    • Bb
    • B
    • C
    • Db
    • D
    • Eb
    • E
    • F
    • F#
    • G
    • Ab
  • Adicionar à lista

    0 comentários

    Ver todos os comentários

    Conseguiu tocar?

    0 Tocaram 0 Ainda não

    Grave um vídeo tocando Feeling Good e nos envie!

    Entre para oCifra Club PRO

    Tenha acesso a benefícios exclusivos no App e no Site

    • Chega de anúncios

    • Prioridade de compra em lançamentos

    • Mais recursos no app do Afinador

    • Atendimento Prioritário

    • Descontos nos produtos Cifra Club

    • Ajude a produzir mais conteúdo

    00:00 / 00:00

    Cifra Club Pro

    Aproveite o Cifra Club com benefícios exclusivos e sem anúncios
    Cifra Club Pro
    Aproveite o Cifra Club com benefícios exclusivos e sem anúncios
    OK