Cifra Club

Aprenda

Glorious

Muse

Cifra: Principal (violão e guitarra)
Já pensou em usar uma coleção de roupas do Cifra Club? Responda as perguntas abaixo e nos ajude nessa missão! →
tom: E
Riff principal:
E|---------------------|
B|---------------------|
G|---------------------|
D|--9--8--9---11--9-8--|
A|----7--7--7----7-----|
E|---------------------|

Intro:
(00:10 - 01:24)
E|---------------------|
B|--12-11-12-14-12-11--|
G|---------------------|
D|---------------------|
A|---------------------|
E|---------------------|

Guitarra:
(00:27 - 00:46)
E5 E5 B/D# B/D# [2x]
E|---------------------|
B|---------------------|
G|---------------------|
D|--9--8--9---11--9-8--|
A|----7--7--7----7-----|
E|---------------------| 

(00:47 - 01:05)

E5   E5     B/D#  G#5
Rose-tinted view
    E5              E5             B/D#  G#5
And satellites that compromise the truth

E|---------------------|
B|---------------------|
G|---------------------|
D|--9--8--9---11--9-8--|
A|----7--7--7----7-----|
E|---------------------|

But I wanted more
With the cuts and the bruises
Touch my face
A hopeless embrace

Pré-refrão (picking Rápido)
E|-------------|
B|-------------|
G|--8/9/10/11--|[2x]
D|-------------|
A|-------------|
E|-------------|

Refrão:
    Faith      it drives me aw---ay    but it turns me on
E|-----------------------------------------------------------------|
B|-----------------------------------------------------------------|
G|--8----9--10----11--------12---13--14----15----------16--18--19--|
D|-----------------------------------------------------------------|
A|-----------------------------------------------------------------|
E|-----------------------------------------------------------------|

Like a strangers l---o---v---e  It rockets through the universe
E|---------------------------------15------14----------12--11--|
B|---------------17--18--19--20--------------------------------|
G|---20--------------------------------------------------------|
D|-------------------------------------------------------------|
A|-------------------------------------------------------------|
E|-------------------------------------------------------------|

 It fuels the lies, it feeds the curse and we  too could be  glorious!
E|--15--------16-------18--------19--------19--18--16----14--14---12--|
B|--------------------------------------------------------------------|
G|--------------------------------------------------------------------|
D|--------------------------------------------------------------------|
A|--------------------------------------------------------------------|
E|--------------------------------------------------------------------|

Interludio:
E|---------------------|
B|---------------------|
G|---------------------|
D|--9--8--9---11--9-8--|
A|----7--7--7----7-----|
E|---------------------| [4x]

Verso 2:
E5  E5      B/D#   G#5
I   need to believe
E|---------------------|
B|---------------------|
G|---------------------|
D|--9--8--9---11--9-8--|
A|----7--7--7----7-----|
E|---------------------|

But I still want more
With the cuts and the bruises
Don't close the door
On what you adore

(Refrão)

Outro:
     E5  Em  B/D#  G#5
E|---------------------|
B|---------------------|
G|--9------------------|
D|--9-----2---9-----6--|
A|--7-----2---6-----6--|
E|--------0---------4--|
Composição de Matthew Bellamy
Colaboração e revisão:
  • Angelo Senseve
1.499 exibições
    • ½ Tom
    • A
    • Bb
    • B
    • C
    • Db
    • D
    • Eb
    • E
    • F
    • F#
    • G
    • Ab
  • Adicionar à lista

    0 comentários

    Ver todos os comentários
    00:00 / 00:00
    Outros vídeos desta música
    Repetir Qualidade Automático
    Outros vídeos desta música
    00:00 / 00:00
    Automático

    Cifra Club Pro

    Aproveite o Cifra Club com benefícios exclusivos e sem anúncios
    Cifra Club Pro
    Aproveite o Cifra Club com benefícios exclusivos e sem anúncios
    OK