Cifra Club

Aprenda

Hysteria

Muse

Cifra: Principal (violão e guitarra)
tom: B
[Intro]

(Riff 1)

E|----------------------------------------------------|
B|----------------------------------------------------|
G|----------------------------------------------------|
D|----------------------------------------------------|
A|----------------------------------------------------|
E|--6-6-6-6-6-6-6-6b-6b-6b-6b-6b-6b-6b-6b-6b-6b-6b...-|

E|----------------------------------------------------|
B|----------------------------------------------------|
G|----------------------------------------------------|
D|----------------------------------------------------|
A|----------------------------------------------------|
E|--7-7-7-7-7-7-7-7b-7b-7b-7b-7b-7b-7b-7b-7b-7b-7b...-|

E|----------------------------------------------------|
B|----------------------------------------------------|
G|----------------------------------------------------|
D|----------------------------------------------------|
A|----------------------------------------------------|
E|-8-8-8-8-8-8-8-8b-8b-8b-8b-8b-8b-8b-8b-8b-8b-8b...--|

E|----------------------------------------------------|
B|----------------------------------------------------|
G|----------------------------------------------------|
D|----------------------------------------------------|
A|----------------------------------------------------|
E|-9-9-9-9-9-9b-9b-9b-9b-10-10-10-10b-10b-10b-10b-...-|

(Riff 2)

E|----------------------------------------------------|
B|-----------------------------12b13r12--10-----------|
G|--14--14-14-14--14-14-14----------------------------|
D|---x---x--x--x---x--x--x----------------------------|
A|--12--12-12-12--12-12-12----------------------------|
E|----------------------------------------------------|

E|----------------------------------------------------|
B|-----------------------------12b14r12--10-----------|
G|--13--13-13-13--13-13-13----------------------------|
D|---x---x--x--x---x--x--x----------------------------|
A|--11--11-11-11--11-11-11----------------------------|
E|----------------------------------------------------|

E|----------------------------------------------------|
B|-----------------------------12b14r12--10-----------|
G|--10--10-10-10--10-10-10----------------------------|
D|---x---x--x--x---x--x--x----------------------------|
A|---8---8--8--8---8--8--8----------------------------|
E|----------------------------------------------------|

E|----------------------------------------------------|
B|-----------------------------12b14r12--10-----------|
G|----9--9-9-9--9-9-9---------------------------------|
D|----x--x-x-x--x-x-x---------------------------------|
A|----7--7-7-7--7-7-7---------------------------------|
E|----------------------------------------------------|
 
      Am
It's bugging me
  E
Grating me
      Dm          Am
And twisting me around
         Am
Yeah I'm endlessly
 E
Caving in
     Dm            Am
And turning inside out

( A5 )

E|----------------------------------------------------|
B|----------------------------------------------------|
G|----------------------------------------------------|
D|----------------------------------------------------|
A|-7-7-7-7-7--7-7-7-7-7--7-7-7-7-7-7------------------|
E|-5-5-5-5-5--5-5-5-5-5--5-5-5-5-5-5------------------|
p.m. . . . . . . . . . . . . . . .

[Refrão]

                  C5
'Cause I want it now
           G5
I want it now
D5                            A5
 Give me your heart and your soul
                 C5
And I'm breaking out
             G5
I'm breaking out
D5                        E5
 Last chance to lose control

(Riff 2)

[Segunda Parte]

           Am
Yeah It's holding me
 E
Morphing me
     Dm              Am
And forcing me to strive
      Am
To be endlessly
 E
Cool within
      Dm           A5
And dreaming I'm alive

[Refrão]

                  C5
'Cause I want it now
           G5
I want it now
D5                            A5
 Give me your heart and your soul
                 C5
And I'm breaking out
             G5
I'm breaking out
D5                        A5
 Last chance to lose control

[Ponte]

E|----------------------------------------------------|
B|----------------------------------------------------|
G|----------------------------------------------------|
D|----------------------------------------------------|
A|----------------------------------------------------|
E|--0-0-10-0-10-12-0-10-0-10-9-0-9-8-0-8-7------------|

E|----------------------------------------------------|
B|----------------------------------------------------|
G|----------------------------------------------------|
D|----------------------------------------------------|
A|----------------------------------------------------|
E|--0-10-0-10-12-0-10-0-10-9-0-9-8-0-8-7--------------|

E|----------------------------------------------------|
B|----------------------------------------------------|
G|----------------------------------------------------|
D|----------------------------------------------------|
A|----------------------------------------------------|
E|--0-10-0-10-12-0-10-0-10-9-0-9-8-0-8-7--------------|

E|----------------------------------------------------|
B|----------------------------------------------------|
G|----------------------------------------------------|
D|----------------------------------------------------|
A|----------------------------------------------------|
E|--0-10-0-10-12-0-15-0-12-0-15-15-0-15-17------------|

[Solo] 

(Parte 1)

E|----------------------------------------------------|
B|--------17-17-------18-18-------18-18-17-17----17---|
G|--14-14-------14-14-------14-14-------------14------|
D|----------------------------------------------------|
A|----------------------------------------------------|
E|----------------------------------------------------|

E|----------------------------------------------------|
B|--------17-17-------18-18-------18-18-17-17----17---|
G|--13-13-------13-13-------13-13-------------13------|
D|----------------------------------------------------|
A|----------------------------------------------------|
E|----------------------------------------------------|

E|-------------------17-17----------------------------|
B|-------18-18-------------------18-18--------17-17---|
G|-14-14-------14-14-------14-14-------14-14----------|
D|----------------------------------------------------|
A|----------------------------------------------------|
E|----------------------------------------------------|

E|----------------------------------------------------|
B|--------17-17-------18-18-------18-18-17-17----17---|
G|--14-14-------14-14-------14-14-------------14------|
D|----------------------------------------------------|
A|----------------------------------------------------|
E|----------------------------------------------------|

E|----------------------------------------------------|
B|--------17-17-------18-18-------18-18-17-17----17---|
G|--14-14-------14-14-------14-14-------------14------|
D|----------------------------------------------------|
A|----------------------------------------------------|
E|----------------------------------------------------|

E|----------------------------------------------------|
B|--------17-17-------18-18-------18-18-17-17----17---|
G|--13-13-------13-13-------13-13-------------13------|
D|----------------------------------------------------|
A|----------------------------------------------------|
E|----------------------------------------------------|

E|-------------------17-17----------------------------|
B|-------18-18-------------------18-18--------17-17---|
G|-14-14-------14-14-------14-14-------14-14----------|
D|----------------------------------------------------|
A|----------------------------------------------------|
E|----------------------------------------------------|

E|----------------------------------------------------|
B|-17-----------15-----------13----------12-----------|
G|----14-14-14----------------------------------------|
D|-----------------15-15-15-----14-14-14----12-12-12--|
A|----------------------------------------------------|
E|----------------------------------------------------|

(Parte 2)

E|----------------------------------------------------|
B|---13---------12b-r12-10-12-12----------------------|
G|------12-----------------------12-------------------|
D|---------14-----------------------12----------------|
A|----------------------------------------------------|
E|----------------------------------------------------|

E|----------------------------------------------------|
B|--12-13-13-15-15---------13b-r13-12-13-13-----------|
G|-----------------14-----------------------14--------|
D|--------------------13-----------------------14-----|
A|----------------------------------------------------|
E|----------------------------------------------------|

E|----------------------------------------------------|
B|--15-13-12-13---------12b-r12-10-12-12--------------|
G|--------------12-----------------------12-----------|
D|-----------------14-----------------------12--------|
A|----------------------------------------------------|
E|----------------------------------------------------|

E|----------------------------------------------------|
B|---12-13-13-14b--------13b-r13-12-13-13-------------|
G|----------------------------------------14----------|
D|-----------------14b-----------------------14-------|
A|----------------------------------------------------|
E|----------------------------------------------------|

E|----------------------------------------------------|
B|--15-13-12------------------------------------------|
G|----------------------------------------------------|
D|----------------------------------------------------|
A|----------------------------------------------------|
E|----------------------------------------------------|

[Refrão]

                  C5
'Cause I want it now
           G5
I want it now
D5                            A5
 Give me your heart and your soul
                 C5
And I'm breaking out
             G5
I'm breaking out
D5                        A5
 Last chance to lose control

                  C5
'Cause I want it now
           G5
I want it now
D5                            A5
 Give me your heart and your soul
                 C5
And I'm breaking out
             G5
I'm breaking out
D5                        A5
 Last chance to lose control

[Final]

E|----------------------------------------------------|
B|----------------------------------------------------|
G|----------------------------------------------------|
D|----------------------------------------------------|
A|----------------------------------------------------|
E|--0-0-10-0-10-12-0-10-0-10-9-0-9-8-0-8-7------------|

E|----------------------------------------------------|
B|----------------------------------------------------|
G|----------------------------------------------------|
D|----------------------------------------------------|
A|----------------------------------------------------|
E|--0-10-0-10-12-0-10-0-10-9-0-9-8-0-8-7--------------|

E|----------------------------------------------------|
B|----------------------------------------------------|
G|----------------------------------------------------|
D|----------------------------------------------------|
A|----------------------------------------------------|
E|--0-10-0-10-12-0-10-0-10-9-0-9-8-0-8-7--------------|

E|----------------------------------------------------|
B|----------------------------------------------------|
G|----------------------------------------------------|
D|----------------------------------------------------|
A|----------------------------------------------------|
E|--0-10-0-10-12-0-15-0-12-0-15-15-0-15-17------------|
Composição de Chris Wolstenholme / Dominic Howard / Matthew Bellamy
Colaboração e revisão:
105.202 exibições
    • ½ Tom
    • A
    • Bb
    • B
    • C
    • Db
    • D
    • Eb
    • E
    • F
    • F#
    • G
    • Ab
  • Adicionar à lista

    0 comentários

    Ver todos os comentários
    00:00 / 00:00
    Outros vídeos desta música
    Repetir Qualidade Automático
    Outros vídeos desta música
    00:00 / 00:00
    Automático

    Cifra Club Pro

    Aproveite o Cifra Club com benefícios exclusivos e sem anúncios
    Cifra Club Pro
    Aproveite o Cifra Club com benefícios exclusivos e sem anúncios
    OK