Cifra Club

Aprenda

Mk Ultra

Muse

Cifra: Principal (violão e guitarra)
Já pensou em usar uma coleção de roupas do Cifra Club? Responda as perguntas abaixo e nos ajude nessa missão! →
tom: A
(drop: d)

(intro 2x)

E |-------------------------------------------------------------------------|
B |-6---5-6---5-6-----6-----6-----6-----6-----6-----8-------8-------8-------|
G |-----------------------------------5-----5-----5-------------------------|
D |---7-----7-----7-8---7-8---7-8---7-----7-----7------(b9)10----(b9)10----(b9)10-|
A |-------------------------------------------------------------------------|
E |-------------------------------------------------------------------------|

E |-------------------------------------------------------------------------|
B |----10-------10-------11-------11-------11-----------10-------10---------|
G |--------------------------------------------------10-------10-------10---|
D |-12----10-12----10-12----10-12----10-12----10--10-------10-------10------|
A |-------------------------------------------------------------------------|
E |-------------------------------------------------------------------------|

E |-------------------------------|
B |-------------------------------|
G |--12--10--(b9)-----10--(b9)--------|
D |-------------11---------11--8--|
A |-------------------------------|
E |-------------------------------|

(verse 2x)
E |----------------------------------|
B |----------------------------------|
G |----------------------------------|
D |--7-(x30ish)-8-(x8)-7-(x8)-5 (x8)-|
A |----------------------------------|
E |----------------------------------|

(intro)

(chorus)
E |----------------------------------------------------------------|
B |----------------------------------------------------------------|
G |-7-------(b9)------10-------12------10------(b9)-----7------6-------|
D |-x-(x16)-x-(x32)-x--(x16)--x-(x4)-x--(x4)-x-(x4)-x-(x4)-x-(x16)-|
A |-5-------7-------8--------10------8-------7------5------4-------|
E |----------------------------------------------------------------|

(interlude 2x)
E |-----------------------------------------------------------------|
B |-----------------------------------------------------------------|
G |-----------------------------------------------------------------|
D |-----------------------------------------------------------------|
A |-12-12--12--12\---12-12--12--11\---10-10--10--10\---(b9)(b9)-(b9)-9\---|
E |-12-12--12--12\---12-12--12--11\---10-10--10--10\---(b9)(b9)-(b9)-9\---|
   x  x   x         x  x   x         x  x   x         x x  x

E |---------------------------------------------------- | ------|
B |---------------------------------------------------- | ------|
G |---------------------------------------------------- | ------|
D |---------------------------------------------------- | ------|
A |-8-8--8--8\---7-7--7--7\---7-7--7--7\---7-7--7--7\-- | ------|
E |-8-8--8--8\---7-7--7--7\---7-7--7--7\---7-7--7--7\-- | -15---|- 
   x x  x       x x  x       x x  x       x x  x

(riff 4x)
E |--------------------------|
B |--------------------------|
G |--------------------------|
D |----------------------5\--|  
A |-0--0--3--0--5--7--0------|
E |-0--0--3--0--5--7--0------|

(verse 2x)
(intro)
(chorus)

(outro part 1)
E |-----------------------------------------------|
B |-----------------------------------------------|
G |-7------10------(b9)-------5------8------7-------|
D |-x-(x8)-x--(x8)-x-(x16)--x-(x8)-x-(x8)-x-(x16)-|
A |-5------8-------7--------3------6------5-------|
E |-----------------------------------------------|

E |------------------------------------|
B |------------------------------------|
G |-3------7-------10------(b9)----------|
D |-x-(x8)-x-(x24)-x-(x16)-x-let ring--|
A |-1------5-------8-------7-----------|
E |------------------------------------|

E |------------------------------------|
B |------------------------------------|
G |------------------------------------|
D |------------------------------------|
A |------------------------------------|
E |-1515141411313121210109988776655\---|

(outro part 2)
E |--------------------------|
B |--------------------------|
G |--------------------------|
D |----------------------5\--| (3x)
A |-0--0--3--0--5--7--0------|
E |-0--0--3--0--5--7--0------|

E |--------------------------|
B |--------------------------|
G |--------------------------|
D |----------------------7\--|  (2x)
A |-0--0--3--0--5--7--0------|
E |-0--0--3--0--5--7--0------|

E |--------------------------|--------------------------|
B |--------------------------|--------------------------|
G |--------------------------|--------------------------|
D |----------------------8\--|----------------------10\-|
A |-0--0--3--0--5--7--0------|-0--0--3--0--5--7--0------|
E |-0--0--3--0--5--7--0------|-0--0--3--0--5--7--0------|

E |--------------------------|--------------------------|
B |--------------------------|--------------------------|
G |--------------------------|--------------------------|
D |----------------------12\-|----------------------13\-|
A |-0--0--3--0--5--7--0------|-0--0--3--0--5--7--0------|
E |-0--0--3--0--5--7--0------|-0--0--3--0--5--7--0------|

E |--------------------------|--------------------------|
B |--------------------------|--------------------------|
G |--------------------------|--------------------------|
D |----------------------14\-|----------------------15\-|
A |-0--0--3--0--5--7--0------|-0--0--3--0--5--7--0------|
E |-0--0--3--0--5--7--0------|-0--0--3--0--5--7--0------|

E |--------------------------|
B |--------------------------|
G |--------------------------|
D |----------------------17\-| (4x)
A |-0--0--3--0--5--7--0------|
E |-0--0--3--0--5--7--0------|
Composição de Matthew Bellamy
Colaboração e revisão:
  • Vinicius Moreira
5.671 exibições
    • ½ Tom
    • A
    • Bb
    • B
    • C
    • Db
    • D
    • Eb
    • E
    • F
    • F#
    • G
    • Ab
  • Adicionar à lista

    0 comentários

    Ver todos os comentários
    00:00 / 00:00
    Outros vídeos desta música
    Repetir Qualidade Automático
    Outros vídeos desta música
    00:00 / 00:00
    Automático

    Cifra Club Pro

    Aproveite o Cifra Club com benefícios exclusivos e sem anúncios
    Cifra Club Pro
    Aproveite o Cifra Club com benefícios exclusivos e sem anúncios
    OK