Cifra Club

Aprenda

Neutron Star Collision

Muse

Cifra: Principal (violão e guitarra)
Já pensou em usar uma coleção de roupas do Cifra Club? Responda as perguntas abaixo e nos ajude nessa missão! →
tom: Db
    Gb5  Ab5 A5            Db5   Eb5 F5
Our love        would be forever
          Gb5 Ab5 A5          Db5    Eb5 F5
And if we die,       we die together
    Gb5 Ab5 A5        Db5  Eb5 F5
And lie,       I said never
          Gb5  Ab5 A5            Db5
Cause our love,       would be forever

E|----------------|---------------------|
B|----------------|---------------------|
G|----------------|---------------------|
D|----------------|---------------------|
A|----------------|------------4----6-8-|
E|----2----4-5----|---------------------|

E|-------------------|-----------------------------|
B|-------------------|-----------------------------|
G|-------------------|-----------------------------|
D|-------------------|-----------------------------|
A|-------------------|------------4444444444444444-|
E|-----------2---4-5-|-----------------------------|
  Cause our love      Would be forever

(solo)
E|---------------------------|
B|-14~-13~---9-11-9--7-6-9-7-|
G|---------------------------|
D|---------------------------|
A|---------------------------|
E|---------------------------|

E|------9-11-13--13h14p13-11-9-8-9-11--14bu-----|
B|----9-----------------------------------------|
G|-10---------------------------------------13~-|
D|----------------------------------------------|
A|----------------------------------------------|
E|----------------------------------------------|
Composição de Matthew Bellamy
Colaboração e revisão:
  • Thyerrí Cruz
5.291 exibições
    • ½ Tom
    • A
    • Bb
    • B
    • C
    • Db
    • D
    • Eb
    • E
    • F
    • F#
    • G
    • Ab
  • Adicionar à lista

    0 comentários

    Ver todos os comentários

    Conseguiu tocar?

    0 Tocaram 0 Ainda não

    Grave um vídeo tocando Neutron Star Collision e nos envie!

    00:00 / 00:00
    Outros vídeos desta música
    Repetir Qualidade Automático
    Outros vídeos desta música
    00:00 / 00:00
    Automático

    Cifra Club Pro

    Aproveite o Cifra Club com benefícios exclusivos e sem anúncios
    Cifra Club Pro
    Aproveite o Cifra Club com benefícios exclusivos e sem anúncios
    OK