Cifra Club

New Born

Muse

Cifra: Principal (violão e guitarra)
tom: B
Link it to the world
Link it to yourself
Stretch it like a birth squeeze
For love for what you ride
For bitterness inside
Is growing like the new born
When you've seen, seen
Too much, too young, young
Souless is everywhere

Intro:
E|--------------------------------------------------------------------------|
B|--------------------------------------------------------------------------|
G|--------------------------------------------------------------------------|
D|--------------------------------------------------------------------------|
A|---------------------------------------------------------------2-2-2-2----|
D|-2-2-2-2-5-2-5-6-7-7-7-7-10-7-10-11-12-0-0-12-0-0-3-4-5-5-5-5-------------|

      C                A#º               Em                B5
E|-0-0-0-0-0-0-0-0-|-0-0-0-0-0-0-0-0-|-0-0-0-0-0-0-0-0-|---------------------|
B|-1-1-1-1-1-1-1-1-|-2-2-2-2-2-2-2-2-|-0-0-0-0-0-0-0-0-|---------------------|
G|-0-0-0-0-0-0-0-0-|-0-0-0-0-0-0-0-0-|-0-0-0-0-0-0-0-0-|-4-4-4-4-4-4-4-4-----|
D|-2-2-2-2-2-2-2-2-|-2-2-2-2-2-2-2-2-|-2-2-2-2-2-2-2-2-|-4-4-4-4-4-4-4-4-----|
A|-3-3-3-3-3-3-3-3-|-1-1-1-1-1-1-1-1-|-2-2-2-2-2-2-2-2-|-2-2-2-2-2-2-2-2-----|
D|-----------------|-----------------|-----------------|---------------------|
P.M  . . . . . . .   . . . . . . . .   . . . . . . . .   . . . . . . . .

E|--------------------------------------------------------------------------|
B|--------------------------------------------------------------------------|
G|--------------------------------------------------------------------------|
D|--------------------------------------------------------------------------|
A|--------------------------------------------------------------2-2-2-2-----|
D|-2-2-2-2-5-2-5-6-7-7-7-7-10-7-10-11-12-0-0-12-0-0-3-4-5-5-5-5-------------|

( C A#º Em B5 )

E|--------------------------------------------------------------------------|
B|--------------------------------------------------------------------------|
G|--------------------------------------------------------------------------|
D|--------------------------------------------------------------------------|
A|--------------------------------------------------------------2-2-2-2-----|
D|-2-2-2-2-5-2-5-6-7-7-7-7-10-7-10-11-12-0-0-12-0-0-3-4-5-5-5-5-------------|

( C A#º Em B5 )

Parte 1:

   Hopeless time to  roam          The distance to your home
E|-7-7-7-7-7-7-7-7-|-7-7-7-7-7-7-7-7-|-7-7-7-7-7-7-7-7-|-7-7-7-7-7-7-7-7-|
B|-8-8-8-8-8-8-8-8-|-7-7-7-7-7-7-7-7-|-8-8-8-8-8-8-8-8-|-7-7-7-7-7-7-7-7-|
G|-9-9-9-9-9-9-9-9-|-8-8-8-8-8-8-8-8-|-9-9-9-9-9-9-9-9-|-8-8-8-8-8-8-8-8-|
D|-----------------|-----------------|-----------------|-----------------|
A|-----------------|-----------------|-----------------|-----------------|
D|-----------------|-----------------|-----------------|-----------------|

 Fades a-            -way        to    no-          -where
E|-7-7-7-7-7-7-7-7-|-8-8-8-8-8-8-8-8-|-7-7-7-7-7-7-7-7-|-7-7-7-7-7-7-7-7-|
B|-8-8-8-8-8-8-8-8-|-8-8-8-8-8-8-8-8-|-8-8-8-8-8-8-8-8-|-7-7-7-7-7-7-7-7-|
G|-9-9-9-9-9-9-9-9-|-9-9-9-9-9-9-9-9-|-7-7-7-7-7-7-7-7-|-8-8-8-8-8-8-8-8-|
D|-----------------|-----------------|-----------------|-----------------|
A|-----------------|-----------------|-----------------|-----------------|
D|-----------------|-----------------|-----------------|-----------------|

   How much are your earth        You can't come down to earth     You're-
E|-7-7-7-7-7-7-7-7-|-7-7-7-7-7-7-7-7-|-7-7-7-7-7-7-7-7-|-7-7-7-7-7-7-7-7-|
B|-8-8-8-8-8-8-8-8-|-7-7-7-7-7-7-7-7-|-8-8-8-8-8-8-8-8-|-7-7-7-7-7-7-7-7-|
G|-9-9-9-9-9-9-9-9-|-8-8-8-8-8-8-8-8-|-9-9-9-9-9-9-9-9-|-8-8-8-8-8-8-8-8-|
D|-----------------|-----------------|-----------------|-----------------|
A|-----------------|-----------------|-----------------|-----------------|
D|-----------------|-----------------|-----------------|-----------------|

  -swealling         up      You're    unstoppable         'cause you've-
E|-7-7-7-7-7-7-7-7-|-8-8-8-8-8-8-8-8-|-7-7-7-7-7-7-7-7-|-7-7-7-7-7-7-7-7-|
B|-8-8-8-8-8-8-8-8-|-8-8-8-8-8-8-8-8-|-8-8-8-8-8-8-8-8-|-7-7-7-7-7-7-7-7-|
G|-9-9-9-9-9-9-9-9-|-9-9-9-9-9-9-9-9-|-7-7-7-7-7-7-7-7-|-8-8-8-8-8-8-8-8-|
D|-----------------|-----------------|-----------------|-----------------|
A|-----------------|-----------------|-----------------|-----------------|
D|-----------------|-----------------|-----------------|-----------------|

  -seen,                              -seen
E|-7-7-7-7-7-7-7-7-|-7-7-7-7-7-7-7-7-|-7-7-7-7-7-7-7-7-|-7-7-7-7-7-7-7-7-|
B|-8-8-8-8-8-8-8-8-|-7-7-7-7-7-7-7-7-|-8-8-8-8-8-8-8-8-|-7-7-7-7-7-7-7-7-|
G|-9-9-9-9-9-9-9-9-|-8-8-8-8-8-8-8-8-|-9-9-9-9-9-9-9-9-|-8-8-8-8-8-8-8-8-|
D|-----------------|-----------------|-----------------|-----------------|
A|-----------------|-----------------|-----------------|-----------------|
D|-----------------|-----------------|-----------------|-----------------|

   Too               mu-                                         -uch
E|-7-7-7-7-7-7-7-7-|-8-8-8-8-8-8-8-8-|-7-7-7-7-7-7-7-7-|-7-7-7-7-7-7-7-7-|
B|-8-8-8-8-8-8-8-8-|-8-8-8-8-8-8-8-8-|-8-8-8-8-8-8-8-8-|-7-7-7-7-7-7-7-7-|
G|-9-9-9-9-9-9-9-9-|-9-9-9-9-9-9-9-9-|-7-7-7-7-7-7-7-7-|-8-8-8-8-8-8-8-8-|
D|-----------------|-----------------|-----------------|-----------------|
A|-----------------|-----------------|-----------------|-----------------|
D|-----------------|-----------------|-----------------|-----------------|

Too young,                             young,
E|-7-7-7-7-7-7-7-7-|-7-7-7-7-7-7-7-7-|-7-7-7-7-7-7-7-7-|-7-7-7-7-7-7-7-7-|
B|-8-8-8-8-8-8-8-8-|-7-7-7-7-7-7-7-7-|-8-8-8-8-8-8-8-8-|-7-7-7-7-7-7-7-7-|
G|-9-9-9-9-9-9-9-9-|-8-8-8-8-8-8-8-8-|-9-9-9-9-9-9-9-9-|-8-8-8-8-8-8-8-8-|
D|-----------------|-----------------|-----------------|-----------------|
A|-----------------|-----------------|-----------------|-----------------|
D|-----------------|-----------------|-----------------|-----------------|

   Sou-             -less is           every-           -where
E|-7-7-7-7-7-7-7-7-|-8-8-8-8-8-8-8-8-|-7-7-7-7-7-7-7-7-|-7-x-x-7-x-x-7-7-|
B|-8-8-8-8-8-8-8-8-|-8-8-8-8-8-8-8-8-|-8-8-8-8-8-8-8-8-|-7-x-x-7-x-x-7-7-|
G|-9-9-9-9-9-9-9-9-|-9-9-9-9-9-9-9-9-|-7-7-7-7-7-7-7-7-|-8-x-x-8-x-x-8-8-|
D|-----------------|-----------------|-----------------|-----------------|
A|-----------------|-----------------|-----------------|-----------------|
D|-----------------|-----------------|-----------------|-----------------|

Refrão 1:
E5           A5      F#5
   Destroy the spineless
G5   F#5       C
Show me it's real
A#º          Em    B5
Wasting our last chance
           E5
To come away
              A5     F#5
Just break the silence
           G5  F#5    C
'cause I'm drifting away
A#º        Em
Away from you
 B5
Ouuhh...

Pré-Solo:
E|-----------------|----------------------------------------|----------------------|
B|-----------------|----------------------------------------|[slide 3/7 palhetando]|
G|-x-x-x-x-x-x-x-x-|-9---------9---------5---------5--------|----------------------|
D|-x-x-x-x-x-x-x-x-|-x--7-7-7--x--7-7-7--x--3-3-3--x--3-3-3-|-3/7------------------|
A|-x-x-x-x-x-x-x-x-|-7--0-0-0--7--0-0-0--3---------3--------|-3/7------------------|
D|-x-x-x-x-x-x-x-x-|----------------------------------------|-3/7------------------|

Solo:
E|-------------------------------------|-------------------------------------------|
B|-12-12-12-12-8-8-8-8-5-5-5-5-8-8-5-5-|-12-12-12-12-7-7-7-7-4-4-4-4-7-7-4-4-------|
G|-------------------------------------|-------------------------------------------|   (2x)
D|-------------------------------------|-------------------------------------------|
A|-------------------------------------|-------------------------------------------|
D|-------------------------------------|-------------------------------------------|

E|-------------------------------------|-------------------------------------------|
B|-12-12-12-12-8-8-8-8-5-5-5-5-0-0-0-0-|-13-13-13-13-8-8-8-8-5-5-5-5-0-0-0-0-------|
G|-------------------------------------|-------------------------------------------|
D|-------------------------------------|-------------------------------------------|
A|-------------------------------------|-------------------------------------------|
D|-------------------------------------|-------------------------------------------|

E|---------------------------------------------------------------------------------|
B|-12-12-12-12-8-8-8-8-3-3-3-3----4-4-7-7-12-12-12-12------------------------------|
G|---------------------------------------------------------------------------------|
D|---------------------------------------------------------------------------------|
A|---------------------------------------------------------------------------------|
D|---------------------------------------------------------------------------------|

E|-------------------------------------|-------------------------------------------|
B|-12-12-12-12-8-8-8-8-5-5-5-5-8-8-5-5-|-12-12-12-12-7-7-7-7-4-4-4-4-7-7-4-4-------|
G|-------------------------------------|-------------------------------------------|   (2x)
D|-------------------------------------|-------------------------------------------|
A|-------------------------------------|-------------------------------------------|
D|-------------------------------------|-------------------------------------------|

E|---------------------------------------------------------------------------------|
B|-12-12-0-0-8-8-0-0-5-5-5-5-12-12-12-12-13-13-13-13-8-8-8-8-5-5-5-5---------------|
G|---------------------------------------------------------------------------------|
D|---------------------------------------------------------------------------------|
A|---------------------------------------------------------------------------------|
D|---------------------------------------------------------------------------------|

E|-------------------------------------------|-------------------------------------|
B|-13-13-13-13-12-12-12-12-8-8-8-8---3-3-3-3-|-3h4p3h4p3h4p3h4p3h4~----------------|
G|-------------------------------------------|-------------------------------------|
D|-------------------------------------------|-------------------------------------|
A|-------------------------------------------|-------------------------------------|
D|-------------------------------------------|-------------------------------------|

Parte 2:

Link it to the world
Link it to yourself
Stretch it like a birth squeeze
For love for what you ride
For bitterness inside
Is growing like the new born
When you've seen, seen
Too much, too young, young
Souless is everywhere

For love for what you ride / For bitterness inside
E|-7------------------7----------7-------------7-------------------------|
B|-8------------------7----------8-------------7-------------------------|
G|-9------------------8----------9-------------8-------------------------|
D|-----------------------------------------------------------------------|
A|-----------------------------------------------------------------------|
D|-----------------------------------------------------------------------|

Is growing like the new born
E|-7--------8--------7-----7----------------------------------------------|
B|-8--------8--------8-----7----------------------------------------------|
G|-9--------9--------9-----8----------------------------------------------|
D|------------------------------------------------------------------------|
A|------------------------------------------------------------------------|
D|------------------------------------------------------------------------|

'cause you've-
  -seen,                                    -seen
E|-7-7-7-7-7-7-7-7-|-7-7-7-7-7-7-7-7-|-7-7-7-7-7-7-7-7-|-7-7-7-7-7-7-7-7-|
B|-8-8-8-8-8-8-8-8-|-7-7-7-7-7-7-7-7-|-8-8-8-8-8-8-8-8-|-7-7-7-7-7-7-7-7-|
G|-9-9-9-9-9-9-9-9-|-8-8-8-8-8-8-8-8-|-9-9-9-9-9-9-9-9-|-8-8-8-8-8-8-8-8-|
D|-----------------|-----------------|-----------------|-----------------|
A|-----------------|-----------------|-----------------|-----------------|
D|-----------------|-----------------|-----------------|-----------------|

   Too               mu-                                         -uch
E|-7-7-7-7-7-7-7-7-|-8-8-8-8-8-8-8-8-|-7-7-7-7-7-7-7-7-|-7-7-7-7-7-7-7-7-|
B|-8-8-8-8-8-8-8-8-|-8-8-8-8-8-8-8-8-|-8-8-8-8-8-8-8-8-|-7-7-7-7-7-7-7-7-|
G|-9-9-9-9-9-9-9-9-|-9-9-9-9-9-9-9-9-|-7-7-7-7-7-7-7-7-|-8-8-8-8-8-8-8-8-|
D|-----------------|-----------------|-----------------|-----------------|
A|-----------------|-----------------|-----------------|-----------------|
D|-----------------|-----------------|-----------------|-----------------|

Too young,                             young,
E|-7-7-7-7-7-7-7-7-|-7-7-7-7-7-7-7-7-|-7-7-7-7-7-7-7-7-|-7-7-7-7-7-7-7-7-|
B|-8-8-8-8-8-8-8-8-|-7-7-7-7-7-7-7-7-|-8-8-8-8-8-8-8-8-|-7-7-7-7-7-7-7-7-|
G|-9-9-9-9-9-9-9-9-|-8-8-8-8-8-8-8-8-|-9-9-9-9-9-9-9-9-|-8-8-8-8-8-8-8-8-|
D|-----------------|-----------------|-----------------|-----------------|
A|-----------------|-----------------|-----------------|-----------------|
D|-----------------|-----------------|-----------------|-----------------|

   Sou-             -less is           every-           -where
E|-7-7-7-7-7-7-7-7-|-8-8-8-8-8-8-8-8-|-7-7-7-7-7-7-7-7-|-7-x-x-7-x-x-7-7-|
B|-8-8-8-8-8-8-8-8-|-8-8-8-8-8-8-8-8-|-8-8-8-8-8-8-8-8-|-7-x-x-7-x-x-7-7-|
G|-9-9-9-9-9-9-9-9-|-9-9-9-9-9-9-9-9-|-7-7-7-7-7-7-7-7-|-8-x-x-8-x-x-8-8-|
D|-----------------|-----------------|-----------------|-----------------|
A|-----------------|-----------------|-----------------|-----------------|
D|-----------------|-----------------|-----------------|-----------------|

Refrão 2:
E5           A5      F#5
   Destroy the spineless
G5   F#5       C
Show me it's real
A#º          Em    B5
Wasting our last chance
           E5
To come away
              A5     F#5
Just break the silence
           G5  F#5    C
'cause I'm drifting away
A#º        Em
Away from you


Riff final:

   Ouuhh...
E|--------------------------------------------------------------------------|
B|--------------------------------------------------------------------------|
G|--------------------------------------------------------------------------|
D|--------------------------------------------------------------------------|
A|---------------------------------------------------------------2-2-2-2----|
D|-2-2-2-2-5-2-5-6-7-7-7-7-10-7-10-11-12-0-0-12-0-0-3-4-5-5-5-5-------------|

( C A#º Em B5 )

E|--------------------------------------------------------------------------|
B|--------------------------------------------------------------------------|
G|--------------------------------------------------------------------------|
D|--------------------------------------------------------------------------|
A|--------------------------------------------------------------2-2-2-2-----|
D|-2-2-2-2-5-2-5-6-7-7-7-7-10-7-10-11-12-0-0-12-0-0-3-4-5-5-5-5-------------|

( C A#º Em B5 )

E|--------------------------------------------------------------------------|
B|--------------------------------------------------------------------------|
G|--------------------------------------------------------------------------|
D|--------------------------------------------------------------------------|
A|--------------------------------------------------------------2-2-2-2-----|
D|-2-2-2-2-5-2-5-6-7-7-7-7-10-7-10-11-12-0-0-12-0-0-3-4-5-5-5-5-------------|

( C A#º Em B5 )

E|--------------------------------------------------------------------------|
B|--------------------------------------------------------------------------|
G|--------------------------------------------------------------------------|
D|-9--7--5--4--2~-----------------------------------------------------------|
A|-9--7--5--4--2~-----------------------------------------------------------|
D|-9--7--5--4--2~-----------------------------------------------------------|
00:00 / 00:00
Outros vídeos desta música
Repetir
Outros vídeos desta música
Composição de Matthew Bellamy
Colaboração e revisão:
  • Lucas Ribeiro
  • Pedro Bianchi
  • lucas
32.749 exibições
    • ½ Tom
    • A
    • Bb
    • B
    • C
    • Db
    • D
    • Eb
    • E
    • F
    • F#
    • G
    • Ab
  • Adicionar à lista

    0 comentários

    Ver todos os comentários

    Conseguiu tocar?

    12 Tocaram 0 Ainda não

    Grave um vídeo tocando New Born e nos envie!

    00:00 / 00:00

    Cifra Club Pro

    Aproveite o Cifra Club com benefícios exclusivos e sem anúncios
    Cifra Club Pro
    Aproveite o Cifra Club com benefícios exclusivos e sem anúncios
    OK