Cifra Club

Aprenda

Plug In Baby

Muse

Cifra: Principal (violão e guitarra)
Já pensou em usar uma coleção de roupas do Cifra Club? Responda as perguntas abaixo e nos ajude nessa missão! →
tom: D
Intro:
E|--------------------------------------------------|
B|-----------------------7h8p7----------------------|
G|-----6-----6-7---6-7-9-------9-7-6---6-7---6-7-9--|
D|-8-9---8-9-----9-------------------9-----9--------|
A|--------------------------------------------------|
E|--------------------------------------------------|

E|----------------------------------------------------------|
B|-------7--7h8p7-6-7-6-7-----------7-9b10r9--7-6-7---------|
G|-6-7-9------------------7-------7-----------------7-6-7---|
D|--------------------------7---7---------------------------|
A|----------------------------9-----------------------------|
E|----------------------------------------------------------|

E|--------------------------------------------------|
B|-----------------------7h8p7----------------------|
G|-----6-----6-7---6-7-9-------9-7-6---6-7---6-7-9--|
D|-8-9---8-9-----9-------------------9-----9--------|
A|--------------------------------------------------|
E|--------------------------------------------------|

E|----------------------------------------------------------|
B|-------7--7h8p7-6-7-6-7-----------7-9b10r9--7-6-7---------|
G|-6-7-9------------------7-------7-----------------7-6-7---|
D|--------------------------7---7---------------------------|
A|----------------------------9-----------------------------|
E|----------------------------------------------------------|

E|--------------------------------------------------|
B|-----------------------7h8p7----------------------|
G|-----6-----6-7---6-7-9-------9-7-6----------------|
D|-8-9---8-9-----9-------------------9~-------------|
A|--------------------------------------------------|
E|--------------------------------------------------|

Parte 1:
I've exposed your lies, baby
The underneath is no big surprise

 Now it's time             for changing    /   And cleansing everything
E|-----------------------------|------------------------|----------------------|
B|----------10-----------------|----11------------------|-------12-------------|
G|-------------11--------------|-------11---------------|----------12----------|
D|----------------12~----------|----------11~-----------|-------------12~------|
A|-----------------------------|------------------------|----------------------|
E|-----------------------------|------------------------|----------------------|

To forget your love
E|-----------------------------|
B|--------------10-------------|
G|-----------------11----------|
D|--------------------12~------|
A|-----------------------------|
E|-----------------------------|

Ponte:
     F#5
E|-----------------------------------|
B|-----------------------------------|
G|-----------------------------------|
D|--4-4-4-4-4-4-4-4-4-4-4-4-4-4-4-4--|
A|--4-4-4-4-4-4-4-4-4-4-4-4-4-4-4-4--|
E|--2-2-2-2-2-2-2-2-2-2-2-2-2-2-2-2--|
P.M . . . . . . . . . . . . . . . .

Refrão:
G5               B5
   My plug in baby
F#5           G5
Crucifies my enemies
                   B5     F#5
When I'm tired of giving
G5               B5
   My plug in baby
     F#5             G5
In unbroken virgin realities
                D5
Is tired of living

Wooo...

Riff:
E|--------------------------------------------------|
B|-----------------------7h8p7----------------------|
G|-----6-----6-7---6-7-9-------9-7-6---6-7---6-7-9--|
D|-8-9---8-9-----9-------------------9-----9--------|
A|--------------------------------------------------|
E|--------------------------------------------------|

E|----------------------------------------------------------|
B|-------7--7h8p7-6-7-6-7-----------7-9b10r9--7-6-7---------|
G|-6-7-9------------------7-------7-----------------7-6-7---|
D|--------------------------7---7---------------------------|
A|----------------------------9-----------------------------|
E|----------------------------------------------------------|

E|--------------------------------------------------|
B|-----------------------7h8p7----------------------|
G|-----6-----6-7---6-7-9-------9-7-6----------------|
D|-8-9---8-9-----9-------------------9~-------------|
A|--------------------------------------------------|
E|--------------------------------------------------|

Parte 2:
Don't confuse
Baby you're gonna lose

  Your own game       /      Change me       /      Replace the envying
E|-----------------------------|------------------------|----------------------|
B|----------10-----------------|----11------------------|-------12-------------|
G|-------------11--------------|-------11---------------|----------12----------|
D|----------------12~----------|----------11~-----------|-------------12~------|
A|-----------------------------|------------------------|----------------------|
E|-----------------------------|------------------------|----------------------|

To forget your love
E|-----------------------------|
B|--------------10-------------|
G|-----------------11----------|
D|--------------------12~------|
A|-----------------------------|
E|-----------------------------|

Ponte:
     F#5
E|-----------------------------------|
B|-----------------------------------|
G|-----------------------------------|
D|--4-4-4-4-4-4-4-4-4-4-4-4-4-4-4-4--|
A|--4-4-4-4-4-4-4-4-4-4-4-4-4-4-4-4--|
E|--2-2-2-2-2-2-2-2-2-2-2-2-2-2-2-2--|
P.M . . . . . . . . . . . . . . . .

Refrão:
G5               B5
   My plug in baby
F#5           G5
Crucifies my enemies
                   B5     F#5
When I'm tired of giving
G5               B5
   My plug in baby
     F#5             G5
In unbroken virgin realities
                D5
Is tired of living

Wooo...

Riff + Estrofe (cantados juntos):

Wooo...          And I've seen your loving
E|--------------------------------------------------|
B|-----------------------7h8p7----------------------|
G|-----6-----6-7---6-7-9-------9-7-6---6-7---6-7-9--|
D|-8-9---8-9-----9-------------------9-----9--------|
A|--------------------------------------------------|
E|--------------------------------------------------|

                 But mi-
E|----------------------------------------------------------|
B|-------7--7h8p7-6-7-6-7-----------7-9b10r9--7-6-7---------|
G|-6-7-9------------------7-------7-----------------7-6-7---|
D|--------------------------7---7---------------------------|
A|----------------------------9-----------------------------|
E|----------------------------------------------------------|

   -ne    is gone    /   And I've been in trouble
E|--------------------------------------------------|
B|-----------------------7h8p7----------------------|
G|-----6-----6-7---6-7-9-------9-7-6---6-7---6-7-9--|
D|-8-9---8-9-----9-------------------9-----9--------|
A|--------------------------------------------------|
E|--------------------------------------------------|

                   Woooo....
E|----------------------------------------------------------|
B|-------7--7h8p7-6-7-6-7-----------7-9b10r9--7-6-7---------|
G|-6-7-9------------------7-------7-----------------7-6-7---|
D|--------------------------7---7---------------------------|
A|----------------------------9-----------------------------|
E|----------------------------------------------------------|

Riff final:

E|--------------------------------------------------|
B|-----------------------7h8p7----------------------|
G|-----6-----6-7---6-7-9-------9-7-6---6-7---6-7-9--|
D|-8-9---8-9-----9-------------------9-----9--------|
A|--------------------------------------------------|
E|--------------------------------------------------|

E|----------------------------------------------------------|
B|-------7--7h8p7-6-7-6-7-----------7-9b10r9--7-6-7---------|
G|-6-7-9------------------7-------7-----------------7-6-7---|
D|--------------------------7---7---------------------------|
A|----------------------------9-----------------------------|
E|----------------------------------------------------------|

E|-----------------------------------------|
B|-----------------------7h8p7-------------|
G|-----6-----6-7---6-7-9-------9-7-6-------|
D|-8-9---8-9-----9-------------------9~----|
A|-----------------------------------------|
E|-----------------------------------------|
Composição de Matthew Bellamy
Colaboração e revisão:
  • Lucas Ribeiro
82.126 exibições
    • ½ Tom
    • A
    • Bb
    • B
    • C
    • Db
    • D
    • Eb
    • E
    • F
    • F#
    • G
    • Ab
  • Adicionar à lista

    0 comentários

    Ver todos os comentários

    Conseguiu tocar?

    28 Tocaram 1 Ainda não

    Grave um vídeo tocando Plug In Baby e nos envie!

    00:00 / 00:00
    Outros vídeos desta música
    Repetir Qualidade Automático
    Outros vídeos desta música
    00:00 / 00:00
    Automático

    Cifra Club Pro

    Aproveite o Cifra Club com benefícios exclusivos e sem anúncios
    Cifra Club Pro
    Aproveite o Cifra Club com benefícios exclusivos e sem anúncios
    OK