Cifra Club

Aprenda

Reapers

Muse

Cifra: Original (violão e guitarra)
Já pensou em usar uma coleção de roupas do Cifra Club? Responda as perguntas abaixo e nos ajude nessa missão! →
tom: Em
(Tap)

  t        t        t        t        t        t        t        t
E|------------------------------------------------------------------------|
B|------------------------------------------------------------------------|
G|------------------------------------------------------------------------|
D|12-0-4-7-12-0-4-7-12-0-4-7-12-0-4-7-12-0-4-7-12-0-4-7-12-0-4-7-12-0-4-7-|
A|------------------------------------------------------------------------|
D|------------------------------------------------------------------------|

  t        t        t        t        t        t        t        t
E|------------------------------------------------------------------------|
B|------------------------------------------------------------------------|
G|------------------------------------------------------------------------|
D|12-0-5-8-12-0-5-8-12-0-5-8-12-0-5-8-12-0-5-8-12-0-5-8-12-0-5-8-12-0-5-8-|
A|------------------------------------------------------------------------|
D|------------------------------------------------------------------------|

  t         t         t         t         t         t         t         t
E|--------------------------------------------------------------------------------|
B|--------------------------------------------------------------------------------|
G|--------------------------------------------------------------------------------|
D|12-0-8-11-12-0-8-11-12-0-8-11-12-0-8-11-12-0-8-11-12-0-8-11-12-0-8-11-12-0-8-11-|
A|--------------------------------------------------------------------------------|
D|--------------------------------------------------------------------------------|

  t         t         t         t         t         t         t         t
E|--------------------------------------------------------------------------------|
B|--------------------------------------------------------------------------------|
G|--------------------------------------------------------------------------------|
D|12-0-7-11-12-0-7-11-12-0-7-11-12-0-7-11-12-0-7-11-12-0-7-11-12-0-7-11-12-0-7-11-|
A|--------------------------------------------------------------------------------|
D|--------------------------------------------------------------------------------|

  t        t        t        t        t        t        t        t
E|------------------------------------------------------------------------|
B|------------------------------------------------------------------------|
G|12-0-3-7-12-0-3-7-12-0-3-7-12-0-3-7-12-0-3-7-12-0-3-7-12-0-3-7-12-0-3-7-|
D|------------------------------------------------------------------------|
A|------------------------------------------------------------------------|
D|------------------------------------------------------------------------|

  t        t        t        t        t        t        t        t
E|------------------------------------------------------------------------|
B|------------------------------------------------------------------------|
G|12-0-5-8-12-0-5-8-12-0-5-8-12-0-5-8-12-0-5-8-12-0-5-8-12-0-5-8-12-0-5-8-|
D|------------------------------------------------------------------------|
A|------------------------------------------------------------------------|
D|------------------------------------------------------------------------|

  t        t        t        t        t        t        t        t
E|------------------------------------------------------------------------|
B|------------------------------------------------------------------------|
G|12-0-6-9-12-0-6-9-12-0-6-9-12-0-6-9-12-0-6-9-12-0-6-9-12-0-6-9-12-0-6-9-|
D|------------------------------------------------------------------------|
A|------------------------------------------------------------------------|
D|------------------------------------------------------------------------|

  t     t     t    t    t    t    t    t    t
E|-----------------------------------------------|
B|-----------------------------------------------|
G|12-11-12-10-12-9-12-8-12-7-12-6-12-5-12-4-12-3-|
D|-----------------------------------------------|
A|-----------------------------------------------|
D|-----------------------------------------------|

Verso:

 (Home,           is becoming a  Killing field       there's a crosshair locked on my heart   with no
E|------------------------------------------------55----55----55----55-----------------------------|
B|66-xx-66-xx-66-xx-66-xx-88-xx-88-xx-88-xx-88-xx-66-xx-66-xx-66-xx-66-xx-88-xx-88-xx-88-xx-88-xx--|
G|77-xx-77-xx-77-xx-77-xx-77-xx-77-xx-77-xx-77-xx-55-xx-55-xx-55-xx-55-xx-77-xx-77-xx-77-xx-77-xx--|
D|77-xx-77-xx-77-xx-77-xx-88-xx-88-xx-88-xx-88-xx-77-xx-77-xx-77-xx-77-xx-88-xx-88-xx-88-xx-88-xx--|
A|55-xx-55-xx-55-xx-55-xx-------------------------00-xx-00-xx-00-xx-00-----------------------------|
D|-------------------------------------------------------------------------------------------------|

  recourse,   and theres no one behind the wheel   hellfire           you're wiping me out      killed by
E|------------------------------------------------55----55----55----55------------------------------------|
B|66-xx-66-xx-66-xx-66-xx-88-xx-88-xx-88-xx-88-xx-66-xx-66-xx-66-xx-66-xx-88-xx-88-xx-88-xx-88-xx-55-xx-55|
G|77-xx-77-xx-77-xx-77-xx-77-xx-77-xx-77-xx-77-xx-55-xx-55-xx-55-xx-55-xx-77-xx-77-xx-77-xx-77-xx-66-xx-66|
D|77-xx-77-xx-77-xx-77-xx-88-xx-88-xx-88-xx-88-xx-77-xx-77-xx-77-xx-77-xx-88-xx-88-xx-88-xx-88-xx-77-xx-77|
A|55-xx-55-xx-55-xx-55-xx-------------------------00-xx-00-xx-00-xx-00------------------------------------|
D|--------------------------------------------------------------------------------------------------------|

Ponte
                     (DRONES!)             [KILLED BY]
E|------------------------------------------------|
B|------------------------------------------------|
G|------------------------------------------------|
D|--------------------------------------------5/6-|
A|--5-3-0-3-0---------5-------5-3-0-3-0-------3/4-|
D|0-----------5-3-0-0---0---0-----------5-3-------|

                     (DRONES!)             [KILLED BY]
E|------------------------------------------------|
B|------------------------------------------------|
G|------------------------------------------------|
D|--------------------------------------------3/4-|
A|--5-3-0-3-0---------5-------5-3-0-3-0-------3/4-|
D|0-----------5-3-0-0---0---0-----------5-3---3/4-|

Refrão (x2)

E|----------------------------------------------------------------|
B|----------------------------------------------------------------|
G|----------------------------------------------------------------|
D|------------------------------------------------------------3-2-|
A|------------------------------------------------------------3\2-|
D|3-55555-3h5---2-33333-2h3---8-1010101010-9h10------3-55555--3\2-|

Riff: (com whammy +ve)

  -                 +                 -                 +
                    (Tap)
  t        t        t        t        t        t        t        t
E|------------------------------------------------------------------------|
B|------------------------------------------------------------------------|
G|------------------------------------------------------------------------|
D|12-0-4-7-12-0-4-7-12-0-4-7-12-0-4-7-12-0-4-7-12-0-4-7-12-0-4-7-12-0-4-7-|
A|------------------------------------------------------------------------|
D|------------------------------------------------------------------------|

  -                 +                 -                 +

  t        t        t        t        t        t        t        t
E|------------------------------------------------------------------------|
B|------------------------------------------------------------------------|
G|------------------------------------------------------------------------|
D|12-0-5-8-12-0-5-8-12-0-5-8-12-0-5-8-12-0-5-8-12-0-5-8-12-0-5-8-12-0-5-8-|
A|------------------------------------------------------------------------|
D|------------------------------------------------------------------------|

  -                   +                   -                   +

  t         t         t         t         t         t         t         t
E|--------------------------------------------------------------------------------|
B|--------------------------------------------------------------------------------|
G|--------------------------------------------------------------------------------|
D|12-0-8-11-12-0-8-11-12-0-8-11-12-0-8-11-12-0-8-11-12-0-8-11-12-0-8-11-12-0-8-11-|
A|--------------------------------------------------------------------------------|
D|--------------------------------------------------------------------------------|

  -                   +                   -                   +

  t         t         t         t         t         t         t         t
E|--------------------------------------------------------------------------------|
B|--------------------------------------------------------------------------------|
G|--------------------------------------------------------------------------------|
D|12-0-7-11-12-0-7-11-12-0-7-11-12-0-7-11-12-0-7-11-12-0-7-11-12-0-7-11-12-0-7-11-|
A|--------------------------------------------------------------------------------|
D|--------------------------------------------------------------------------------|

  -                 +                 -                 +

  t        t        t        t        t        t        t        t
E|------------------------------------------------------------------------|
B|------------------------------------------------------------------------|
G|12-0-3-7-12-0-3-7-12-0-3-7-12-0-3-7-12-0-3-7-12-0-3-7-12-0-3-7-12-0-3-7-|
D|------------------------------------------------------------------------|
A|------------------------------------------------------------------------|
D|------------------------------------------------------------------------|

  -                 +                 -                 +

  t        t        t        t        t        t        t        t
E|------------------------------------------------------------------------|
B|------------------------------------------------------------------------|
G|12-0-5-8-12-0-5-8-12-0-5-8-12-0-5-8-12-0-5-8-12-0-5-8-12-0-5-8-12-0-5-8-|
D|------------------------------------------------------------------------|
A|------------------------------------------------------------------------|
D|------------------------------------------------------------------------|

  -                 +                 -                 +
  t        t        t        t        t        t        t        t
E|------------------------------------------------------------------------|
B|------------------------------------------------------------------------|
G|12-0-6-9-12-0-6-9-12-0-6-9-12-0-6-9-12-0-6-9-12-0-6-9-12-0-6-9-12-0-6-9-|
D|------------------------------------------------------------------------|
A|------------------------------------------------------------------------|
D|------------------------------------------------------------------------|

  - gradualmente libere a pressão do whammy

  t     t     t    t    t    t    t    t    t
E|-----------------------------------------------|
B|-----------------------------------------------|
G|12-11-12-10-12-9-12-8-12-7-12-6-12-5-12-4-12-3-|
D|-----------------------------------------------|
A|-----------------------------------------------|
D|-----------------------------------------------|

Verso:


E|-------------------------------------------------------------------------------------------------|
B|66-xx-66-xx-66-xx-66-xx-88-xx-88-xx-88-xx-88-xx-66-xx-66-xx-66-xx-66-xx-88-xx-88-xx-88-xx-88-xx--|
G|77-xx-77-xx-77-xx-77-xx-77-xx-77-xx-77-xx-77-xx-55-xx-55-xx-55-xx-55-xx-77-xx-77-xx-77-xx-77-xx--|
D|77-xx-77-xx-77-xx-77-xx-88-xx-88-xx-88-xx-88-xx-77-xx-77-xx-77-xx-77-xx-88-xx-88-xx-88-xx-88-xx--|
A|55-xx-55-xx-55-xx-55-xx-------------------------00-xx-00-xx-00-xx-00-----------------------------|
D|-------------------------------------------------------------------------------------------------|

E|------------------------------------------------55----55----55----55------------------------------------|
B|66-xx-66-xx-66-xx-66-xx-88-xx-88-xx-88-xx-88-xx-66-xx-66-xx-66-xx-66-xx-88-xx-88-xx-88-xx-88-xx-55-xx-55|
G|77-xx-77-xx-77-xx-77-xx-77-xx-77-xx-77-xx-77-xx-55-xx-55-xx-55-xx-55-xx-77-xx-77-xx-77-xx-77-xx-66-xx-66|
D|77-xx-77-xx-77-xx-77-xx-88-xx-88-xx-88-xx-88-xx-77-xx-77-xx-77-xx-77-xx-88-xx-88-xx-88-xx-88-xx-77-xx-77|
A|55-xx-55-xx-55-xx-55-xx-------------------------00-xx-00-xx-00-xx-00------------------------------------|
D|--------------------------------------------------------------------------------------------------------|

Ponte
                     (DRONES!)             [KILLED BY]
E|------------------------------------------------|
B|------------------------------------------------|
G|------------------------------------------------|
D|--------------------------------------------5/6-|
A|--5-3-0-3-0---------5-------5-3-0-3-0-------3/4-|
D|0-----------5-3-0-0---0---0-----------5-3-------|

                     (DRONES!)             [KILLED BY]
E|------------------------------------------------|
B|------------------------------------------------|
G|------------------------------------------------|
D|--------------------------------------------3/4-|
A|--5-3-0-3-0---------5-------5-3-0-3-0-------3/4-|
D|0-----------5-3-0-0---0---0-----------5-3---3/4-|


Chorus (x2)

E|----------------------------------------------------------------|
B|----------------------------------------------------------------|
G|----------------------------------------------------------------|
D|------------------------------------------------------------3-2-|
A|------------------------------------------------------------3\2-|
D|3-5-555-3h5---2-33333-2h3---8-1010101010-9h10------3-55555--3\2-|


Ponte 2:

E|--------------------------------------------------|
B|--------------------------------------------------|
G|--------------------------------------------------|
D|--------------------------------------------------|
A|-5-3-0-3-0---------5--------5-3-0-3-0---------5---|
D|-----------5-3-0-0---0----------------5-3---0---0-|

E|------------------------------------------------|
B|------------------------------------------------|
G|------------------------------------------------|
D|--------------------------------------------5/6-|
A|-5-3-0-3-0---------5------5-3-0-3-0---------3/4-|
D|-----------5-3-0-0---0--------------5-3---------|

Solo:

Com whammy (+ve)

  + \\\\\ -                           -+   +-                          +
E|*------------------------------------------------------------------------------------------|
B|*--------13~-10b~--------------------------------------------------------------------------|
G|*------------10b~------------------------13~~------------------------13~~------------------|
D|*------------------10tr12---------------------------------------------------------------3--|
A|*------------------------10-12-10-11~~---------10h11p10-8-10-11~~--------10h11p10-8-3-5--5-|
D|*------------------------------------------------------------------------------------------|

E|-------12---12------------------------|
B|-----12--12-15b17(17)13h15p13---------|
G|14b16---------------------------------|      whammy nonsese
D|--------------------------------------|
A|--------------------------------------|
D|--------------------------------------|

+ve                        -

E|---------------------------------------------------------------15-14-12//-|
B|-------12tr14-----------------------------------------15-14-12------------|
G|12tr14-------12tr14--------------------------14-13-12---------------------|
D|--------------------14-12-----------14-13-12------------------------------|
A|---------------------------14-13-12---------------------------------------|
D|--------------------------------------------------------------------------|

E|-----15-----15------------------------------------15-17-18-17-15-17-15---15---------------|
B|-------------------------15-----15-------15-17-18---------------------18---18-17-18-17-15-|
G|15h16--15h16--15h16-----------------------------------------------------------------------|
D|--------------------16h17--16h17--16h17---------------------------------------------------|
A|------------------------------------------------------------------------------------------|
D|------------------------------------------------------------------------------------------|

E|-----17-----17----------------------------------17-19-20-19-17-19-17---17-----------------|
B|-------------------------17-----17------17-19-20---------------------20---20-19-20-19-17--|
G|17h18--17h18--17h18-----------------------------------------------------------------------|
D|--------------------18h19--18h19--18h19---------------------------------------------------|
A|------------------------------------------------------------------------------------------|
D|------------------------------------------------------------------------------------------|

E|20b(22)~(22)~(22)~(22)~(22)r20-20-19-20~-20~-20~-20~-20-19-20-19-17-20~-20~-20~-20~-|
B|------------------------------------------------------------------------------------|
G|------------------------------------------------------------------------------------|
D|------------------------------------------------------------------------------------|
A|------------------------------------------------------------------------------------|
D|------------------------------------------------------------------------------------|

E|20-19-20-19-17-19~-19~-19~-19~-19-17-19-17-15-|
B|----------------------------------------------|
G|----------------------------------------------|
D|----------------------------------------------|
A|----------------------------------------------|
D|----------------------------------------------|

 +  - + - +            - + - +         - + - +

E|---------------------------------------------------------------|
B|---------------------------------------------------------------|
G|12--12--12-10-9-12-10--10--10-9-7-10-9--9--9-7-5-9-7-5-5h7p5-4-|
D|---------------------------------------------------------------|
A|---------------------------------------------------------------|
D|---------------------------------------------------------------|

tremelo
 +  - + - +            - + - +              - + - +
E|15-----15-13-12-15-13-------13-12-10-13-12-------12-10-8-12-10-8-8h10p8\7-|
B|--------------------------------------------------------------------------|
G|--------------------------------------------------------------------------|
D|--------------------------------------------------------------------------|
A|--------------------------------------------------------------------------|
D|--------------------------------------------------------------------------|


Refrão (x2)

E|-----------------------------------------------------------------------|
B|-----------------------------------------------------------------------|
G|-----------------------------------------------------------------------|
D|-----------------------------------------------------------------------|
A|3-55555-555-555-2-33333-333-333-8-10-101010-101010-101010-3-5-555--3\2-|
D|3-55555-555-555-2-33333-333-333-8-10-101010-101010-101010-3-5-555--3\2-|

 (alternativo)
E|--------15--------------15---------------13--------------13-------|
B|----15----15--15----15----15--15-----13----13--13----13----13--13-|
G|--16--16----16----16--16----16-----14--14----14----14--14----14---|
D|17--------------17---------------15--------------15---------------|
A|------------------------------------------------------------------|
D|------------------------------------------------------------------|

E|--------12--------------12---------------------------------------------------------|
B|----13----13--13----13----13--13-----12--15-12--12----12--15-12--12----------------|
G|--12--12----12----12--12----12-----12--12-----12----12--12-----12------------------|
D|14--------------14---------------12---------------12----------------15-15h17p15\14-|
A|-----------------------------------------------------------------------------------|
D|-----------------------------------------------------------------------------------|

E|--------15--------------15---------------13--------------13-------|
B|----15----15--15----15----15--15-----13----13--13----13----13--13-|
G|--16--16----16----16--16----16-----14--14----14----14--14----14---|
D|17--------------17---------------15--------------15---------------|
A|------------------------------------------------------------------|
D|------------------------------------------------------------------|

E|--------12--------------12-------------------------------------------------------------------|
B|----13----13--13----13----13--13-----12--15-12--12----12--15-12--12--------------------------|
G|--12--12----12----12--12----12-----12--12-----12----12--12-----12----------------------------|
D|14--------------14---------------12---------------12----------------15-15h17p15\14\12~~~~~~--|
A|---------------------------------------------------------------------------------------------|
D|---------------------------------------------------------------------------------------------|

Outro: (HERE COME THE DRONES!)

E|------------------------------------|
B|------------------------------------|
G|------------------------------------|    (x2)
D|------------------------------------|
A|------------------------------------|
D|12-0-3-0-45-0-6-0-78-0-9-0-10-11----|

E|------------------------------------|
B|------------------------------------|
G|------------------------------------|    (x6)
D|------------------------------------|
A|12-0-3-0-45-0-6-0-78-0-9-0-10-11----|
D|12-0-3-0-45-0-6-0-78-0-9-0-10-11----|

E|-------------|
B|-------------|
G|-------------|
D|0------------|
A|0(deixe soar)|
D|0------------|
Composição de Matthew Bellamy
Colaboração e revisão:
  • Daniel
1.189 exibições
    • ½ Tom
    • Am
    • Bbm
    • Bm
    • Cm
    • C#m
    • Dm
    • Ebm
    • Em
    • Fm
    • F#m
    • Gm
    • G#m
  • Adicionar à lista

    0 comentários

    Ver todos os comentários
    00:00 / 00:00
    Outros vídeos desta música
    Repetir Qualidade Automático
    Outros vídeos desta música
    00:00 / 00:00
    Automático

    Cifra Club Pro

    Aproveite o Cifra Club com benefícios exclusivos e sem anúncios
    Cifra Club Pro
    Aproveite o Cifra Club com benefícios exclusivos e sem anúncios
    OK