Cifra Club

Aprenda

Something Human

Muse

Cifra: Principal (violão e guitarra)
Já pensou em usar uma coleção de roupas do Cifra Club? Responda as perguntas abaixo e nos ajude nessa missão! →
tom: G
[Intro] A

E|-5----------5----------5----------5---------------------|
B|-------5----------5----------5----------5---------------|
G|-----6---6------7---7------6---6------7---7-------------|
D|---7----------7----------7----------7-------------------|
A|-0----------0----------0----------0---------------------|
E|--------------------------------------------------------|

[Primeira Parte]

    A                                C#m
E|-5----------5----------5----------4---------------------|
B|-------5----------5----------5----------5---------------|
G|-----6---6------7---7------6---6------6---6-------------|
D|---7----------7----------7----------6-------------------|
A|-0----------0----------0----------4---------------------|
E|--------------------------------------------------------|

    F#m                              E
E|-2----------2----------2----------0---------------------|
B|-------2----------3----------2----------0---------------|
G|-----2---2------2---2------2---2------1---1-------------|
D|---4----------4----------4----------2-------------------|
A|--------------------------------------------------------|
E|-2----------2----------2----------0---------------------|

    D                     E
E|-2----------2----------0--------------------------------|
B|-------1----------1----------0---------0----------------|
G|-----2---2------2---2------1---1-----1---1--------------|
D|-0-0--------0-0----------2---------2--------------------|
A|--------------------------------------------------------|
E|-----------------------0----------0---------------------|

    F#m                              E
E|-2----------2----------2----------0---------------------|
B|-------2----------3----------2----------0---------------|
G|-----2---2------2---2------2---2------1---1-------------|
D|---4----------4----------4----------2-------------------|
A|--------------------------------------------------------|
E|-2----------2----------2----------0---------------------|

    A                                C#m
E|-5----------5----------5----------4---------------------|
B|-------5----------5----------5----------5---------------|
G|-----6---6------7---7------6---6------6---6-------------|
D|---7----------7----------7----------6-------------------|
A|-0----------0----------0----------4---------------------|
E|--------------------------------------------------------|

    F#m                              E
E|-2----------2----------2----------0---------------------|
B|-------2----------3----------2----------0---------------|
G|-----2---2------2---2------2---2------1---1-------------|
D|---4----------4----------4----------2-------------------|
A|--------------------------------------------------------|
E|-2----------2----------2----------0---------------------|

    D                     E
E|-2----------2----------0--------------------------------|
B|-------1----------1----------0---------0----------------|
G|-----2---2------2---2------1---1-----1---1--------------|
D|-0-0--------0-0----------2---------2--------------------|
A|--------------------------------------------------------|
E|-----------------------0----------0---------------------|

E|-5----------5----------5----------5---------------------|
B|-------5----------5----------5--------------------------|
G|-----6---6------7---7------6---6------------------------|
D|---7----------7----------7------------------------------|
A|-0----------0----------0----------0---------------------|
E|--------------------------------------------------------|

                   A
My circuits have blown
    C#m      F#m
I know it's self imposed
    E            D                     E
And all I have shared, and all I have loved
              F#m
Is all I'll ever own
     E              A
But something has changed
   C#m    F#m
I feel so alive
    E             D                   E
My life just blew up, I'd give it all up
            A
I'll depressurize

[Pré-Refrão]

    F#m            E          D
E|-9--------------7----------10---------------------------|
B|---------10-----------9-------------10------------10----|
G|------11----11------9---9--------11----11------11----11-|
D|---11-------------9-----------12-------------12---------|
A|-9------------------------------------------------------|
E|----------------0----------10--------------10-----------|

    F#m            E          D
E|-9--------------7----------10---------------------------|
B|---------10-----------9-------------10------------10----|
G|------11----11------9---9--------11----11------11----11-|
D|---11-------------9-----------12-------------12---------|
A|-9------------------------------------------------------|
E|----------------0----------10--------------10-----------|

F#m E   D                 F#m            E
Oh, oh, oh, ten thousand miles left on the road
F#m E   D                 F#m        E
Oh, oh, oh, five-hundred hours 'till I am home

[Refrão]

                  F#m  E    A  A/C#  D
I need something hu___man, hu_________man
 F#m  E    A  A/C#  D
Hu___man, hu_________man

( A )

E|-5----------5----------5----------5---------------------|
B|-------5----------5----------5----------5---------------|
G|-----6---6------7---7------6---6------7---7-------------|
D|---7----------7----------7----------7-------------------|
A|-0----------0----------0----------0---------------------|
E|--------------------------------------------------------|

[Segunda Parte]

    A                                C#m
E|-5----------5----------5----------4---------------------|
B|-------5----------5----------5----------5---------------|
G|-----6---6------7---7------6---6------6---6-------------|
D|---7----------7----------7----------6-------------------|
A|-0----------0----------0----------4---------------------|
E|--------------------------------------------------------|

    F#m                              E
E|-2----------2----------2----------0---------------------|
B|-------2----------3----------2----------0---------------|
G|-----2---2------2---2------2---2------1---1-------------|
D|---4----------4----------4----------2-------------------|
A|--------------------------------------------------------|
E|-2----------2----------2----------0---------------------|

    D                     E
E|-2----------2----------0--------------------------------|
B|-------1----------1----------0---------0----------------|
G|-----2---2------2---2------1---1-----1---1--------------|
D|-0-0--------0-0----------2---------2--------------------|
A|--------------------------------------------------------|
E|-----------------------0----------0---------------------|

    F#m                              E
E|-2----------2----------2----------0---------------------|
B|-------2----------3----------2----------0---------------|
G|-----2---2------2---2------2---2------1---1-------------|
D|---4----------4----------4----------2-------------------|
A|--------------------------------------------------------|
E|-2----------2----------2----------0---------------------|

    A                                C#m
E|-5----------5----------5----------4---------------------|
B|-------5----------5----------5----------5---------------|
G|-----6---6------7---7------6---6------6---6-------------|
D|---7----------7----------7----------6-------------------|
A|-0----------0----------0----------4---------------------|
E|--------------------------------------------------------|

    F#m                              E
E|-2----------2----------2----------0---------------------|
B|-------2----------3----------2----------0---------------|
G|-----2---2------2---2------2---2------1---1-------------|
D|---4----------4----------4----------2-------------------|
A|--------------------------------------------------------|
E|-2----------2----------2----------0---------------------|

    D                     E
E|-2----------2----------0--------------------------------|
B|-------1----------1----------0---------0----------------|
G|-----2---2------2---2------1---1-----1---1--------------|
D|-0-0--------0-0----------2---------2--------------------|
A|--------------------------------------------------------|
E|-----------------------0----------0---------------------|

E|-5----------5----------5----------5---------------------|
B|-------5----------5----------5--------------------------|
G|-----6---6------7---7------6---6------------------------|
D|---7----------7----------7------------------------------|
A|-0----------0----------0----------0---------------------|
E|--------------------------------------------------------|

                A
Let's face all our fears
     C#m      F#m
Come out of the shade
       E            D                      E
Let's burn all the money, absolve all the lies
            F#m
And wake up unscathed
     E           A
The big picture's gone
               C#m    F#m
Replaced with visions of you
     E          D                         E
Now life can begin, I've cleansed all my sins
                  A
I'm about to break through

[Pré-Refrão]

F#m E   D                 F#m            E
Oh, oh, oh, ten thousand miles left on the road
F#m E   D                 F#m        E
Oh, oh, oh, five-hundred hours 'till I am home

[Refrão]

                  F#m  E    A  A/C#  D
I need something hu___man, hu_________man
 F#m  E    A  A/C#  D E
Hu___man, hu_________man

[Ponte]

        F#m     E  A  A/C#  D
And I need the to____________uch
               F#m  E    A  A/C#  D
And something hu___man, hu_________man

( A  C#m  F#m  E  D  E  A )

F#m E   D               F#m           E
Oh, oh, oh less than a mile left on the road
F#m E   D              F#m       E
Oh, oh, oh I will be crawling though your door

[Refrão]

                  F#m  E    A  A/C#  D
I need something hu___man, hu_________man
 F#m  E    A  A/C#  D E
Hu___man, hu_________man

[Final]
        F#m      E  A  A/C#  D
And I need your lo____________ve
               F#m  E    A  A/C#  D    A
And something hu___man, hu_________man
Composição de Matt Bellamy / Matthew Bellamy
Colaboração e revisão:
  • Thiago Almeida
1.389 exibições
    • ½ Tom
    • A
    • Bb
    • B
    • C
    • Db
    • D
    • Eb
    • E
    • F
    • F#
    • G
    • Ab
  • Adicionar à lista

    0 comentários

    Ver todos os comentários

    Conseguiu tocar?

    2 Tocaram 0 Ainda não

    Grave um vídeo tocando Something Human e nos envie!

    00:00 / 00:00
    Outros vídeos desta música
    Repetir Qualidade Automático
    Outros vídeos desta música
    00:00 / 00:00
    Automático

    Cifra Club Pro

    Aproveite o Cifra Club com benefícios exclusivos e sem anúncios
    Cifra Club Pro
    Aproveite o Cifra Club com benefícios exclusivos e sem anúncios
    OK