Cifra Club

Aprenda

Take a Bow

Muse

Cifra: Principal (violão e guitarra)
Já pensou em usar uma coleção de roupas do Cifra Club? Responda as perguntas abaixo e nos ajude nessa missão! →
tom: D
E |-------------------------|-------------------------|-------------------------|
B |-------------------------|-------------------------|-------------------------|
G |-2-------2-------2-------|-3-------3-------3-------|-2-------2-------2-------|
D |---4---4---4---4---4---4-|---4---4---4---4---4---4-|---4---4---4---4---4---4-|
A |-----5-------5-------5---|-----5-------5-------5---|-----5-------5-------5---|
E |-------------------------|-------------------------|-------------------------|

E |-------------------------|-------------------------|-------------------------|
B |-------------------------|-------------------------|-------------------------|
G |-3-------3-------3-------|-2-------2-------2-------|-3-------3-------3-------|
D |---4---4---4---4---4---4-|---4---4---4---4---4---4-|---5---5---5---5---5---5-|
A |-----5-------5-------5---|-----5-------5-------5---|-----5-------5-------5---|
E |-------------------------|-------------------------|-------------------------|

E |-------------------------|-------------------------|
B |-------------------------|-------------------------|
G |-2-------2-------2-------|-2-------2-------2-------|
D |---4---4---4---4---4---4-|---4---4---4---4---4---4-|
A |-----5-------5-------5---|-----5-------5-------5---|
E |-------------------------|-------------------------|

E |-------------------------|-------------------------|-------------------------|
B |-------------------------|-------------------------|-------------------------|
G |-2-------2-------2-------|-3-------3-------3-------|-2-------2-------2-------|
D |---4---4---4---4---4---4-|---4---4---4---4---4---4-|---4---4---4---4---4---4-|
A |-----5-------5-------5---|-----5-------5-------5---|-----5-------5-------5---|
E |-------------------------|-------------------------|-------------------------|

E |-------------------------|-------------------------|-------------------------|
B |-------------------------|-------------------------|-------------------------|
G |-3-------3-------3-------|-2-------2-------2-------|-3-------3-------3-------|
D |---4---4---4---4---4---4-|---4---4---4---4---4---4-|---5---5---5---5---5---5-|
A |-----5-------5-------5---|-----5-------5-------5---|-----5-------5-------5---|
E |-------------------------|-------------------------|-------------------------|

E |-------------------------|-------------------------|
B |-------------------------|-------------------------|
G |-2-------2-------2-------|-3-------3-------3-------|
D |---4---4---4---4---4---4-|---5---5---5---5---5---5-|
A |-----5-------5-------5---|-----5-------5-------5---|
E |-------------------------|-------------------------|

E |-------------------------|-------------------------|-------------------------|
B |-------------------------|-------------------------|-------------------------|
G |-0-------0-------0-------|-0-------0-------0-------|-0-------0-------0-------|
D |---0---0---0---0---0---0-|---0---0---0---0---0---0-|---0---0---0---0---0---0-|
A |-----0-------0-------0---|-----1-------1-------1---|-----0-------0-------0---|
E |-------------------------|-------------------------|-------------------------|

E |-------------------------|-------------------------|-------------------------|
B |-------------------------|-------------------------|-------------------------|
G |-0-------0-------0-------|-0-------0-------0-------|-1-------1-------1-------|
D |---0---0---0---0---0---0-|---0---0---0---0---0---0-|---0---0---0---0---0---0-|
A |-----1-------1-------1---|-----0-------0-------0---|-----1-------1-------1---|
E |-------------------------|-------------------------|-------------------------|

E |-------------------------|-------------------------|-------------------------|
B |-------------------------|-------------------------|-------------------------|
G |-0-------0-------0-------|-1-------1-------1-------|-1-------1-------1-------|
D |---0---0---0---0---0---0-|---0---0---0---0---0---0-|---0---0---0---0---0---0-|
A |-----0-------0-------0---|-----1-------1-------1---|-----2-------2-------2---|
E |-------------------------|-------------------------|-------------------------|

E |-------------------------|-------------------------|-------------------------|
B |-------------------------|-------------------------|-------------------------|
G |-1-------1-------1-------|-1-------1-------1-------|-1-------1-------1-------|
D |---1---1---1---1---1---1-|---0---0---0---0---0---0-|---1---1---1---1---1---1-|
A |-----2-------2-------2---|-----2-------2-------2---|-----2-------2-------2---|
E |-------------------------|-------------------------|-------------------------|

E |-------------------------|-------------------------|-------------------------|
B |-------------------------|-------------------------|-------------------------|
G |-1-------1-------1-------|-1-------1-------1-------|-1-------1-------1-------|
D |---0---0---0---0---0---0-|---1---1---1---1---1---1-|---0---0---0---0---0---0-|
A |-----2-------2-------2---|-----3-------3-------3---|-----2-------2-------2---|
E |-------------------------|-------------------------|-------------------------|

E |-------------------------|-------------------------|-------------------------|
B |-------------------------|-------------------------|-------------------------|
G |-1-------1-------1-------|-1-------1-------1-------|-1-------1-------1-------|
D |---0---0---0---0---0---0-|---0---0---0---0---0---0-|---1---1---1---1---1---1-|
A |-----2-------2-------2---|-----2-------2-------2---|-----2-------2-------2---|
E |-------------------------|-------------------------|-------------------------|

E |-------------------------|-------------------------|-------------------------|
B |-------------------------|-------------------------|-------------------------|
G |-1-------1-------1-------|-1-------1-------1-------|-1-------1-------1-------|
D |---0---0---0---0---0---0-|---1---1---1---1---1---1-|---0---0---0---0---0---0-|
A |-----2-------2-------2---|-----2-------2-------2---|-----2-------2-------2---|
E |-------------------------|-------------------------|-------------------------|

E |-------------------------|-------------------------|-------------------------|
B |-------------------------|-------------------------|-------------------------|
G |-1-------1-------1-------|-1-------1-------1-------|-1-------1-------1-------|
D |---1---1---1---1---1---1-|---0---0---0---0---0---0-|---1---1---1---1---1---1-|
A |-----3-------3-------3---|-----2-------2-------2---|-----3-------3-------3---|
E |-------------------------|-------------------------|-------------------------|

E |-------------------------|-------------------------|-------------------------|
B |-1-------1-------1-------|-2-------2-------2-------|-1-------1-------1-------|
G |---2---2---2---2---2---2-|---2---2---2---2---2---2-|---2---2---2---2---2---2-|
D |-----3-------3-------3---|-----3-------3-------3---|-----3-------3-------3---|
A |-------------------------|-------------------------|-------------------------|
E |-------------------------|-------------------------|-------------------------|

E |-------------------------|-------------------------|-------------------------|
B |-2-------2-------2-------|-1-------1-------1-------|-2-------2-------2-------|
G |---2---2---2---2---2---2-|---2---2---2---2---2---2-|---3---3---3---3---3---3-|
D |-----3-------3-------3---|-----3-------3-------3---|-----3-------3-------3---|
A |-------------------------|-------------------------|-------------------------|
E |-------------------------|-------------------------|-------------------------|

E |-------------------------|-------------------------|-------------------------|
B |-1-------1-------1-------|-2-------2-------2-------|-3-------3-------3-------|
G |---2---2---2---2---2---2-|---3---3---3---3---3---2-|---3---3---3---3---3---3-|
D |-----3-------3-------3---|-----3-------3-------3---|-----3-------3-------3---|
A |-------------------------|-------------------------|-------------------------|
E |-------------------------|-------------------------|-------------------------|

E |-------------------------|-------------------------|-------------------------|
B |-3-------3-------3-------|-3-------3-------3-------|-3-------3-------3-------|
G |---3---3---3---3---3---3-|---3---3---3---3---3---3-|---3---3---3---3---3---3-|
D |-----4-------4-------4---|-----3-------3-------3---|-----4-------4-------4---|
A |-------------------------|-------------------------|-------------------------|
E |-------------------------|-------------------------|-------------------------|

E |-------------------------|-------------------------|-------------------------|
B |-3-------3-------3-------|-4-------4-------4-------|-3-------3-------3-------|
G |---3---3---3---3---3---3-|---3---3---3---3---3---3-|---3---3---3---3---3---3-|
D |-----3-------3-------3---|-----4-------4-------4---|-----3-------3-------3---|
A |-------------------------|-------------------------|-------------------------|
E |-------------------------|-------------------------|-------------------------|

E |-------------------------|-------------------------|-------------------------|
B |-4-------4-------4-------|-4-------4-------4-------|-4-------4-------4-------|
G |---3---3---3---3---3---3-|---3---3---3---3---3---3-|---4---4---4---4---4---4-|
D |-----4-------4-------4---|-----5-------5-------5---|-----5-------5-------5---|
A |-------------------------|-------------------------|-------------------------|
E |-------------------------|-------------------------|-------------------------|

E |-------------------------|-------------------------|-------------------------|
B |-4-------4-------4-------|-4-------4-------4-------|-4-------4-------4-------|
G |---3---3---3---3---3---3-|---4---4---4---4---4---4-|---3---3---3---3---3---3-|
D |-----5-------5-------5---|-----5-------5-------5---|-----5-------5-------5---|
A |-------------------------|-------------------------|-------------------------|
E |-------------------------|-------------------------|-------------------------|

E |-------------------------|-------------------------|-------------------------|
B |-4-------4-------4-------|-4-------4-------4-------|-4-------4-------4-------|
G |---4---4---4---4---4---4-|---3---3---3---3---3---3-|---4---4---4---4---4---4-|
D |-----6-------6-------6---|-----5-------5-------5---|-----6-------6-------6---|
A |-------------------------|-------------------------|-------------------------|
E |-------------------------|-------------------------|-------------------------|

E |-------------------------|-------------------------|-------------------------|
B |-4-------4-------4-------|-4-------4-------4-------|-4-------4-------4-------|
G |---3---3---3---3---3---3-|---4---4---4---4---4---4-|---3---3---3---3---3---3-|
D |-----5-------5-------5---|-----6-------6-------6---|-----5-------5-------5---|
A |-------------------------|-------------------------|-------------------------|
E |-------------------------|-------------------------|-------------------------|

E |-------------------------|-------------------------|-------------------------|
B |-4-------4-------4-------|-4-------4-------4-------|-4-------4-------4-------|
G |---4---4---4---4---4---4-|---3---3---3---3---3---3-|---3---3---3---3---3---3-|
D |-----6-------6-------6---|-----5-------5-------5---|-----5-------5-------5---|
A |-------------------------|-------------------------|-------------------------|
E |-------------------------|-------------------------|-------------------------|

E |-------------------------|-------------------------|
B |-4-------4-------4-------|-4-------4-------4-------|
G |---3---3---3---3---3---3-|---3---3---3---3---3---3-|
D |-----5-------5-------5---|-----5-------5-------5---|
A |-------------------------|-------------------------|
E |-------------------------|-------------------------|

E |--------------|-------------|-------------|-------------|
B |-------------|-------------|-------------|-------------|
G |---8---8---8-|-------------|-------------|-------------|
D |-------------|---9---9---9-|---8---8---8-|---8---8---8-|
A |-6---6---6---|-------------|-------------|-------------|
E |-------------|-7---7---7---|-6---6---6---|-6---6---6---|

E |-------------|-------------|-------------|-------------|
B |-------------|-------------|-------------|-------------|
G |---8---8---8-|-------------|-------------|-------------|
D |-------------|---9---9---9-|---6---6---6-|---6---6---6-|
A |-6---6---6---|-------------|-------------|-------------|
E |-------------|-7---7---7---|-4---4---4---|-4---4---4---|

E |-------------|-------------|-------------|-------------|
B |-------------|-------------|-------------|-------------|
G |---3---3---3-|-------------|-------------|-------------|
D |-------------|---4---4---4-|---3---3---3-|---3---3---3-|
A |-1---1---1---|-------------|-------------|-------------|
E |-------------|-2---2---2---|-1---1---1---|-1---1---1---|

E |-------------|-------------|-------------|-------------|
B |-------------|-------------|-------------|-------------|
G |---3---3---3-|-------------|---8---8---8-|---8---8---8-|
D |-------------|---4---4---4-|-------------|-------------|
A |-1---1---1---|-------------|-6---6---6---|-6---6---6---|
E |-------------|-2---2---2---|-------------|-------------|

E |-------------|-------------|-------------|-------------|
B |-------------|-------------|-------------|-------------|
G |-------------|-------------|---5---5---5-|---10--10--10|
D |---3---3---3-|---7---7---7-|-------------|-------------|
A |-------------|-------------|-3---3---3---|-8---8---8---|
E |-1---1---1---|-5---5---5---|-------------|-------------|

E |-------------|-------------|---13--13--13|---17--17--17|
B |---10--10--10|---13--13--13|-------------|-------------|
G |-------------|-------------|-10--10--10--|-14--14--14--|
D |-7---7---7---|-10--10--10--|-------------|-------------|
A |-------------|-------------|-------------|-------------|
E |-------------|-------------|-------------|-------------|

E |-------------------|-------------------|-------------------|
B |-------------------|-------------------|-------------------|
G |-------------------|-------------------|-------------------|
D |-10-10-10-10-10-10-|-11-11-11-11-11-11-|-10-10-10-10-10-10-|
A |-8--8--8--8--8--8--|-8--8--8--8--8--8--|-8--8--8--8--8--8--|
E |-------------------|-------------------|-------------------|

E |-------------------|-------------------|-------------------|
B |-------------------|-------------------|-------------------|
G |-------------------|-------------------|-------------------|
D |-11-11-11-11-11-11-|-10-10-10-10-10-10-|-11-11-11-11-11-11-|
A |-8--8--8--8--8--8--|-8--8--8--8--8--8--|-8--8--8--8--8--8--|
E |-------------------|-------------------|-------------------|

E |-------------------|-------------------|-------------------|
B |-------------------|-------------------|-------------------|
G |-------------------|-------------------|-------------------|
D |-10-10-10-10-10-10-|--------------X-X--|-------------------|
A |-8--8--8--8--8--8--|--------------X-X--|-8--8--8--8--------|
E |-------------------|-------------------|------------X\\\\0-|

E |------|------|------|--------|---------------|-----------------|-------|------|
B |------|------|------|--------|---------------|-----------------|-------|------|
G |------|------|------|--------|---------------|-----------------|-------|------|
D |------|------|------|--------|---------------|-----------------|-------|------|
A |------|------|------|------X-|---------------|-----------------|-------|------|
E |-6\\\\|\2////|/6\\\\|\2////--|-13-----11--13-|-HB13----13---11-|-13--X-|-HB13-|

E |------|------|------|--------|---------------|-----------------|-------|----------|
B |------|------|------|--------|---------------|-----------------|-------|----------|
G |------|------|------|--------|---------------|-----------------|-------|----------|
D |------|------|------|--------|---------------|-----------------|-------|----------|
A |-6\\\\|\2////|/6\\\\|\2////X-|-10---8--8--10-|-HB10--HB10-10-8-|-10----|-HB10//X-X|
E |------|------|------|--------|---------------|-----------------|-------|----------|

E |------|------|------|--------|---------------|-----------------|-------|---------|
B |------|------|------|--------|---------------|-----------------|-------|---------|
G |------|------|------|--------|---------------|-----------------|-------|---------|
D |------|------|------|--------|---------------|-----------------|-------|---------|
A |------|------|------|--------|-15--13--13-15-|-HB15----15-15-13|-15----|-15///X-X|
E |-4\\\\|\0----|-4\\\\|\0------|---------------|-----------------|-------|---------|

E |------|------|------|--------|---------------|-----------------|-------|-------------------|
B |------|------|------|--------|---------------|-----------------|-------|-------------------|
G |------|------|------|--------|---------------|-----------------|-------|-------------------|
D |------|------|------|--------|-13--11--11-13-|-HB13----13-13-11|-13-13X|-141314131413141314|
A |------|------|------|--------|---------------|-----------------|------X|-------------------|
E |-4\\\\|\0----|-4\\\\|\0------|---------------|-----------------|------X|-------------------|

E |------|------|------|--------|---------------|-----------------|-------|----------|
B |------|------|------|--------|---------------|-----------------|-------|----------|
G |------|------|------|--------|---------------|-----------------|-------|----------|
D |------|------|------|--------|-15--13--13-15-|-HB15----15-15-13|-15-15X|-16~~X\\--|
A |-4\\\\|\0----|-4\\\\|\0------|---------------|-----------------|------X|----------|
E |------|------|------|--------|---------------|-----------------|------X|--------X-|

E |----------|----------|----------|----------|-------------|--------------|-------|------------------|
B |----------|----------|----------|----------|-------------|--------------|-------|------------------|
G |----------|----------|----------|----------|-15--13-13-15|HB15HB15-15-13|-15--15|HB15HB15HB15//X---|
D |----------|----------|----------|----------|-------------|--------------|-------|---------------X--|
A |----------|-5--5--5\\|----------|-5--5--5//|-------------|--------------|-------|---------------X--|
E |-2---2//4-|----------|\2---2//4-|----------|-------------|--------------|-------|---------------X-0|

E |-------|-------|-------------|---------------|--------------|-------------|
B |-------|-------|-16-14-14-16-|-HB16--16-16-14|-16--14-14-16-|-HB16---16---|
G |-------|-------|-------------|---------------|--------------|-------------|
D |-------|-------|-------------|---------------|--------------|-------------|
A |-2-----|-2-----|-------------|---------------|--------------|-------------|
E |-----3-|-----3-|-------------|---------------|--------------|-------------|

E |-14-12-12-14-|-HB14-14-14-12-|-14--12-12--14-|-HB14----14---|
B |-------------|---------------|---------------|--------------|
G |-------------|---------------|---------------|--------------|
D |-------------|---------------|---------------|--------------|
A |-------------|---------------|---------------|--------------|
E |-------------|---------------|---------------|--------------|

E |-19--19-19-19|-19---------22-|-HB22-HB22-HB22|-HB21---------|
B |-------------|---------------|---------------|--------------|
G |-------------|---------------|---------------|--------------|
D |-------------|---------------|---------------|--------------|
A |-------------|---------------|---------------|--------------|
E |-------------|---------------|---------------|--------------|

E |--------|------|------|------|------|------|-0-----|
B |-HB18---|-19---|-19---|-19---|-19---|-19---|-1-----|
G |--------|------|------|------|------|------|-0-----|
D |--------|------|------|------|------|------|-2-----|
A |--------|------|------|------|------|------|-2-----|
E |--------|------|------|------|------|------|-------|

Composição de Matthew Bellamy
Colaboração e revisão:
  • Magali Silva
2.122 exibições
    • ½ Tom
    • A
    • Bb
    • B
    • C
    • Db
    • D
    • Eb
    • E
    • F
    • F#
    • G
    • Ab
  • Adicionar à lista

    0 comentários

    Ver todos os comentários

    Conseguiu tocar?

    1 Tocaram 0 Ainda não

    Grave um vídeo tocando Take a Bow e nos envie!

    00:00 / 00:00
    Outros vídeos desta música
    Repetir Qualidade Automático
    Outros vídeos desta música
    00:00 / 00:00
    Automático

    Cifra Club Pro

    Aproveite o Cifra Club com benefícios exclusivos e sem anúncios
    Cifra Club Pro
    Aproveite o Cifra Club com benefícios exclusivos e sem anúncios
    OK