Notificações Amigos pendentes

      Muse

      Time is running out

      69.346 exibições
      Tom: C
      - Verse A:
              Guit 1: mute
              Guit 2: mute x 2, then:
      
      E--12-------11------------12-13~-10----
      B-----13-10----13-10-9~-12----------12-
      G--------------------------------------
      D--------------------------------------
      A--------------------------------------
      E--------------------------------------  x2
      
      
      
      
      
      - Pre chorus A:
              Guit 1: plays twice:
              Guit 2: mute
      
      E--------------------------------------
      B--------------------------------------
      G--------------------------------------
      D--33333333-55555555-77777777-55555555-
      A--33333333-55555555-77777777-55555555-
      E--11111111-33333333-55555555-33333333-  x2
        |...pm.......pm.......pm.......pm...|
      
      
        then Guit 2:
      
      E------------
      B------------
      G--12-10--9--
      D------------
      A--10--8--7--
      E------------
      
       
      
      
      
      - Chorus A:
              Guit 1 and Guit 2:
      
      E--1--3---5--3-|-1--3---5-
      B--1--3---5--3-|-1--3---5-
      G--2--4---6--5-|-2--4---6-
      D--3--5---7--5-|-3--5---7-
      A--3--5---7--3-|-3--5---7-
      E--1--3---5----|-1--3---5-  x1
      
      
        then Guit 1:
      
      E------------------
      B------------------
      G------------------
      D------------------
      A-----3--------5---
      E-1-1---1--3-3---3-
      
      
      
      
      
      - Solo A:
              Guit 2:
      
      E-----------------------------
      B-----------------------------
      G-9------8----------9-10~-7---
      D---10-7---10-7-6~-9--------9-
      A-----------------------------
      E-----------------------------
      
      
      
      
      
      - Verse B:
              Guit 1:
      
      E------------------------------------------------
      B------------------------------------------------
      G--2-2-5-2---4-4-2-4-------9---------------------
      D--2-2-5-2---4-4-2-4---2-2-9-2-------------------
      A--0-0-3-0---2-2-0-2---2-2-7-2-------3--------5--
      E----------------------0-0---0---1-1---1--3-3---3  x3
      
      
      
      
      
      - Pre chorus B:
              Guit 1: plays twice:
              Guit 2: mute
      
      E-----------------------------------------------------------------------
      B-----------------------------------------------------------------------
      G-1010101010101010-1212121212121212-141414141414141414-1212121212121212-
      D-1010101010101010-1212121212121212-141414141414141414-1212121212121212-
      A--8-8-8-8-8-8-8-8-1010101010101010-121212121212121212-1010101010101010-
      E----------------------------------------------------------------------  x2
        |.......pm..............pm................pm................pm.......|
      
      
        then Guit 2:
      
      E------------
      B------------
      G--12-10--9--
      D------------
      A--10--8--7--
      E------------
      
      
      
      
      
      - Chorus B:
              Guit 1 and Guit 2:
      
      E--1--3---5--3----
      B--1--3---5--3----
      G--2--4---6--5----
      D--3--5---7--5----
      A--3--5---7--3----
      E--1--3---5-------  x2
      
      
        then:
      
      E------------0--------
      B------------0-------- 
      G--7---------2--------
      D--7---------2--------
      A--5---------0--------        
      E---------------------  x3
      
         Oh-Oh-Oh, yeah yeah yeah
      
        then:
      E--------
      B--------
      G-1------
      D-2------
      A-2------
      E-0------ 
      
      
      
      
      - Bridge:
              Guit 1:mute
              Guit 2: plays twice
      
      E--12----12--------11----11---------10----10-----------------------
      B----13----13--------13----13---------12----12--------13----13-----
      G------14----14--------14----14---------13----13--------12----12---
      D---------------------------------------------------------12----12-
      A------------------------------------------------------------------
      E------------------------------------------------------------------ x2
      
      
      
      
      
      - Pre chorus C:
              Guit 1: plays twice:
              Guit 2: mute
      
      E-----------------------------------------------------------------------
      B-----------------------------------------------------------------------
      G-1010101010101010-1212121212121212-141414141414141414-1212121212121212-
      D-1010101010101010-1212121212121212-141414141414141414-1212121212121212-
      A--8-8-8-8-8-8-8-8-1010101010101010-121212121212121212-1010101010101010-
      E----------------------------------------------------------------------  x2
        |.......pm..............pm................pm................pm.......|
      
      
        then Guit 2:
      
      E------------
      B------------
      G--12-10--9--
      D------------
      A--10--8--7--
      E------------
      
      
      
      
      
      - Chorus C:
              Guit 1 and Guit 2:
      
      E--1--3---5--3----
      B--1--3---5--3----
      G--2--4---6--5----
      D--3--5---7--5----
      A--3--5---7--3----
      E--1--3---5-------  x2
      
      
        then:
      
      E------------0--------
      B------------0-------- 
      G--7---------2--------
      D--7---------2--------
      A--5---------0--------        
      E---------------------  x3
      
         Oh-Oh-Oh, yeah yeah yeah
      
        then:
      E--------
      B--------
      G-1------
      D-2------
      A-2------
      E-0------ 
      
      
       
      
      - Outro:
              Guit 1: mute
              Guit 2: plays once
      
      E--------------------------------------------
      B--------------------------------------------
      G-99999999--88888888--77777777--55555555\\\\-
      D--------------------------------------------
      A--------------------------------------------
      E--------------------------------------------
      
        Composição: Chris Wolstenholme / Dominic Howard / Matthew BellamyColaboração e revisão:
        • sk8ergirl

        Comentários 1

        140 .
        • Bala Bala: Em 01/03/2013 13:58

          A Outra versao que estava aqui e 3000 x melhor

        140 cancelar

        conseguiu tocar?

        covers

        Grave um vídeo tocando Time is running out e mande pra gente!

        Ex.: http://www.youtube.com/watch?v=0IvSvIwGdwk
        ver covers de outras músicas »
        0:00 / 0:00

        Capítulos

          1 versão de baixo exibições contribuição e correção
          1 versão de gaita exibições contribuição e correção
          play/pausefechar subir/descer velocidade
          6ª corda E5ª corda A4ª corda D3ª corda G2ª corda B1ª corda E
            acordes
            publicidade
            fechar
            ok