Cifra Club

Aprenda

Unintended

Muse

Cifra: Versão 2 (violão e guitarra)
Quer fazer aulas de música com a gente? Responda essas perguntas
e nos ajude nesse projeto! →
tom: E
(intro)
-----0-------------------------------0--------------------------2-------------
-----0---------------2-1-0-------0---0----------2-1-0-------0-----0-----------
-----1----1--------1-------2-0h1--------------1-------2-------2-----2---------
---2----2--------2-----------------2--------2-------------1-----------1-------
-------------0h2------------------------0h2-------------2-----------------2---
-0---------------------------0------------------------------------------------
 E                                                      B7
                (verse)
-------2-------|---------0---------------0---------------2---------------3----
---0-----0-----|-----0-----0---------1-----1---------3-----3---------3-----3--
-----2-----2---|-------1-----1---------2-----2-----2---2-----2---------0------
-1-----------1-|---2-----------2---2-----------2-0-------------0---0----------
---------------|-----------------0--------------------------------------------
---------------|-0-----------------------------------------------3------------
                 E               Am              D               G5

-------------0-----------------2-----------------0---------------0------------
---------1-----1-----------0-----0-----------0-----0---------0-----0----------
-0---------0-----0---0-------2-----2---2-------1-----1---------1-----1--------
---0---2-----------2-----1-----------1-----2-----------2---2-----------2---2--
-----3-----------------2------------------------------------------------------
-----------------------------------------0---------------0---------------0----
     C                 B7                E

-----0---------------0---------------2---------------3---------------0--------
-0-----0---------1-----1---------3-----3---------3-----3---------1-----1------
---1-----1---------2-----2-----2---2-----2---------0-----0---------0-----0----
-----------2---2-----------2-0-------------0---0-----------0---2-----------2--
-------------0-----------------------------------------------3----------------
---------------------------------------------3--------------------------------
             Am              D               G5              C

                                                          chorus
-----------2-------------------0-----------------0-------|---------0----------
-------0-----0-------------0-----0-----------0-----0-----|-----0-----0--------
-0-------2-----2---2-----1---1-----1---1-------1-----1---|-------1-----1------
-----1-----------1-----2-------------2-----2-----------2-|---2-----------2----
---2-----------------------------------------------------|-----------------0--
---------------------0-------------------0---------------|-0------------------
   B7                E

-------0---------------2---------------3---------------0-----------------2----
---1-----1---------3-----3---------3-----3---------1-----1-----------0-----0--
-----2-----2-----2---2-----2---------0-----0---------0-----0---0-------2------
-2-----------2-0-------------0---0-----------0---2-----------2-----1----------
-----------------------------------------------3-----------------2------------
-------------------------------3----------------------------------------------
 Am            D               G5              C                 B7

---------------0---------------0-------|--------------------------------------
-----------0-----0---------------0-----|--------------------------------------
-2---2-------1-----1-------0-------1---|--------------------------------------
---1-----2-----------2---2---1-------2-|--------------------------------------
---------------------------------------|--------------------------------------
-------0---------------0---------------|--------------------------------------
       e                                 (volta ao verso - quando este terminar,

------------------------------------|---------0-----------------------2-------
------------------------------------|-----0-----0---------0-------------0-----
------------------------------------|-------1-----1---0-----------2-------2---
------------------------------------|---2-----------2---2---2---1---1---------
------------------------------------|-2-----------------------2---------------
------------------------------------|-----------------------------------------
 toque as duas últimas cordas assim)   E               Em      B7

---|---------0---------------0---------------2---------------3----------------
---|-----0-----0---------1-----1---------3-----3---------3-----3---------1----
---|-------1-----1---------2-----2-----2---2-----2---------0-----0---------0--
-1-|---2-----------2---2-----------2-0-------------0---0-----------0---2------
---|-----------------0-----------------------------------------------3--------
---|-0-----------------------------------------------3------------------------
     E               Am              D               G5              C

-0-----------------2-----------------0---------------0---------------0--------
---1-----------0-----0-----------0-----0---------0-----0---------0-----0------
-----0---0-------2-----2---2-------1-----1---------1-----1---------1-----1----
-------2-----1-----------1-----2-----------2---2-----------2---2-----------2--
-----------2------------------------------------------------------------------
-----------------------------0---------------0---------------0----------------
           B7                E

---------0---------------2---------------3---------------0-----------------2--
-----1-----1---------3-----3---------3-----3---------1-----1-----------0------
-------2-----2-----2---2-----2---------0-----0---------0-----0---0-------2----
---2-----------2-0-------------0---0-----------0---2-----------2-----1--------
-0-----------------------------------------------3-----------------2----------
---------------------------------3--------------------------------------------
 Am              D               G5              C                 B7

-----------------0---------------0---------------0---------------0------------
-0-----------0-----0---------0-----0---------1-----1---------1-----1----------
---2---2-------1-----1---------1-----1---------2-----2---------2-----2--------
-----1-----2-----------2---2-----------2---2-----------2---2-----------2---2--
-----------------------------------------0------------------------------------
---------0---------------0-------------------------------3---------------2----
         E                               Am              Am/G            Am/F#

-----0---------------0---------------0---------------0---------------0--------
-1-----1---------0-----0---------0-----0---------0-----0---------------0------
---2-----2---------------2---------2-----2---------2-----2-------1-------1----
-----------2---2---2-------2---2-----------2---2-----------2---2---2-------2--
------------------------------------------------------------------------------
-------------1---------------0---------------0---------------0----------------
             F11          Esus4                           E

------------------------------------------------------------------------------
------------------------------------------------------------------------------
------------------------------------------------------------------------------
------------------------------------------------------------------------------
------------------------------------------------------------------------------
-0----------------------------------------------------------------------------
Composição de Matthew Bellamy
Colaboração e revisão:
  • Mauricio Lorenzetti
  • Vinicius Moreira
2.545 exibições
    • ½ Tom
    • A
    • Bb
    • B
    • C
    • Db
    • D
    • Eb
    • E
    • F
    • F#
    • G
    • Ab
  • Adicionar à lista

    0 comentários

    Ver todos os comentários

    Conseguiu tocar?

    1 Tocaram 0 Ainda não

    Grave um vídeo tocando Unintended e nos envie!

    00:00 / 00:00
    Outros vídeos desta música
    Repetir Qualidade Automático
    Outros vídeos desta música
    00:00 / 00:00
    Automático

    Cifra Club Pro

    Aproveite o Cifra Club com benefícios exclusivos e sem anúncios
    Cifra Club Pro
    Aproveite o Cifra Club com benefícios exclusivos e sem anúncios
    OK