Cifra Club

Qwerty

Mushroomhead

Cifra: Principal (violão e guitarra)
Tom: A
                                                                       
C#|----------------|----------------|----------------|----------------|
G#|----------------|----------------|----------------|----------------|
E|----------------|----------------|----------------|----------------|
B|----------------|----------------|----------------|----------------|
F#|----------------|----------------|----------------|----------------|
B|----------------|----------------|----------------|----------------|

                                                     
----------------------------------------------------|
----------------------------------------------------|
----------------------------------------------------|
----------------------------------------------------|
--3M-3M-------------------3M-3M---------------------|
--3M-3M-------------------3M-3M---------------------|

                                                     
----------------------------------------------------|
----------------------------------------------------|
----------------------------------------------------|
----------------------------------------------------|
--3M-3M-------------------3M-3M---------------------|
--3M-3M-------------------3M-3M---------------------|

                                                     
----------------------------------------------------|
----------------------------------------------------|
----------------------------------------------------|
----------------------------------------------------|
--3M-3M-------------------3M-3M---------------------|
--3M-3M-------------------3M-3M---------------------|

                                                     
----------------------------------------------------|
----------------------------------------------------|
----------------------------------------------------|
----------------------------------------------------|
--3M-3M-------------------3M-3M---------------------|
--3M-3M-------------------3M-3M---------------------|

                                                     
----------------------------------------------------|
----------------------------------------------------|
----------------------------------------------------|
----------------------------------------------------|
--3M-3M-------------------3M-3M---------------------|
--3M-3M-------------------3M-3M---------------------|

                                                     
----------------------------------------------------|
----------------------------------------------------|
----------------------------------------------------|
----------------------------------------------------|
--3M-3M-------------------3M-3M---------------------|
--3M-3M-------------------3M-3M---------------------|

                                                     
----------------------------------------------------|
----------------------------------------------------|
----------------------------------------------------|
----------------------------------------------------|
--3M-3M-------------------3M-3M---------------------|
--3M-3M-------------------3M-3M---------------------|

                                                     
----------------------------------------------------|
----------------------------------------------------|
----------------------------------------------------|
----------------------------------------------------|
--3M-3M-------------------3M-3M---------------------|
--3M-3M-------------------3M-3M---------------------|

                                                     
----------------------------------------------------|
----------------------------------------------------|
----------------------------------------------------|
----------------------------------------------------|
--3M-3M-------3M-3M-------3M-3M-------3M-3M---------|
--3M-3M-------3M-3M-------3M-3M-------3M-3M---------|

                                                     
----------------------------------------------------|
----------------------------------------------------|
----------------------------------------------------|
----------------------------------------------------|
--3g----------3M-3M-------3M-3M-------3M-3M---------|
--3g----------3M-3M-------3M-3M-------3M-3M---------|

                                                     
----------------------------------------------------|
----------------------------------------------------|
----------------------------------------------------|
----------------------------------------------------|
--3g----------3M-3M-------3M-3M-------3M-3M---------|
--3g----------3M-3M-------3M-3M-------3M-3M---------|

                                                     
----------------------------------------------------|
----------------------------------------------------|
----------------------------------------------------|
----------------------------------------------------|
----------------------------------------------------|
--3--3--3--3--0--0--0--0--1--1--1--1--2--2--2--2----|

                                                     
----------------------------------------------------|
----------------------------------------------------|
----------------------------------------------------|
----------------------------------------------------|
----------------------------------------------------|
--3--3--3--3--0--0--0--0--1--1--1--1--2--2--2--2----|

                                                     
----------------------------------------------------|
----------------------------------------------------|
----------------------------------------------------|
----------------------------------------------------|
----------------------------------------------------|
--3--3--3--3--0--0--0--0--1--1--1--1--2--2--2--2----|

                                                     
----------------------------------------------------|
----------------------------------------------------|
----------------------------------------------------|
----------------------------------------------------|
----------------------------------------------------|
--3--3--3--3--0--0--0--0--1--1--1--1--2--2--2--2----|

                                                     
----------------------------------------------------|
----------------------------------------------------|
----------------------------------------------------|
--3--3--0--0--2-------------------------------------|
--3M-3M-0M-0M-2-------------------------------------|
--3M-3M-0M-0M-2-------------------------------------|

                                                     
----------------------------------------------------|
----------------------------------------------------|
----------------------------------------------------|
--3--3--0--0--2-----------1-------------------------|
--3M-3M-0M-0M-2-----------1-------------------------|
--3M-3M-0M-0M-2-----------1-------------------------|

                                                     
----------------------------------------------------|
----------------------------------------------------|
----------------------------------------------------|
----------------------------------------------------|
----------------------------------------------------|
--0-----1--2--0-----1--2--0-----1--2--0-----1--2----|

                                                     
----------------------------------------------------|
----------------------------------------------------|
----------------------------------------------------|
----------------------------------------------------|
----------------------------------------------------|
--0-----1--2--0-----1--2--0-----1--2--0-----1--2----|

                                                     
----------------------------------------------------|
----------------------------------------------------|
----------------------------------------------------|
--1-----2--3--1-----2--3--1-----2--3--1-----2--3----|
--1-----2--3--1-----2--3--1-----2--3--1-----2--3----|
--1-----2--3--1-----2--3--1-----2--3--1-----2--3----|

                                                                           
----------------------------------------------------|----------|----------|
----------------------------------------------------|----------|----------|
----------------------------------------------------|----------|----------|
--1-----2--3--1-----2--3--1-----2--3--1-----2--3----|--1--7----|--0--6----|
--1-----2--3--1-----2--3--1-----2--3--1-----2--3----|--1--7----|--0--6----|
--1-----2--3--1-----2--3--1-----2--3--1-----2--3----|--1--7----|--0--6----|

                                                          
-----------------------1~---|--6L----6~-4--6~----6-------|
--------------6L----6L-6~---|----------------------------|
----------------------------|----------------------------|
-----------4~-3L----3L-3~---|----------------------------|
--8L----8~------------------|----------------------------|
----------------------------|----------------------------|

                             
--------------9L----9~------|
--6L----6~-6----------------|
----------------------------|
----------------------------|
----------------------------|
----------------------------|

                                                     
--12~---9L----9~----6~----9~------------------------|
----------------------------------------------------|
----------------------------------------------------|
--------------------------------------7--6--5--4----|
----------------------------------------------------|
----------------------------------------------------|

                                                          
----------------------------|----------------------------|
--6L----6--7s-6L----6--5s---|--6L----6--7s-6L----6--5s---|
----------------------------|----------------------------|
--3L----3--4s-3L----3--2s---|--3L----3--4s-3L----3--2s---|
----------------------------|----------------------------|
----------------------------|----------------------------|

                             
----------------------------|
--6L----6--7s-6L----6--5----|
----------------------------|
--3L----3--4s-3L----3--2----|
----------------------------|
----------------------------|

                                                     
----------------------------------------------------|
----------------------------------------------------|
----------------------------------------------------|
----------------------------------------------------|
----------------------------------------------------|
--3--3--3--3--0--0--0--0--1--1--1--1--2--2--2--2----|

                                                     
----------------------------------------------------|
----------------------------------------------------|
----------------------------------------------------|
----------------------------------------------------|
----------------------------------------------------|
--3--3--3--3--0--0--0--0--1--1--1--1--2--2--2--2----|

                                                     
----------------------------------------------------|
----------------------------------------------------|
----------------------------------------------------|
----------------------------------------------------|
----------------------------------------------------|
--3--3--3--3--0--0--0--0--1--1--1--1--2--2--2--2----|

                                                     
----------------------------------------------------|
----------------------------------------------------|
----------------------------------------------------|
----------------------------------------------------|
----------------------------------------------------|
--3--3--3--3--0--0--0--0--1--1--1--1--2--2--2--2----|

                                                     
----------------------------------------------------|
----------------------------------------------------|
----------------------------------------------------|
--3M-3M-0M-0M-2-------------------------------------|
--3M-3M-0M-0M-2-------------------------------------|
--3M-3M-0M-0M-2-------------------------------------|

                                                     
----------------------------------------------------|
----------------------------------------------------|
----------------------------------------------------|
--3M-3M-0M-0M-2-------------------------------------|
--3M-3M-0M-0M-2-----------1-------------------------|
--3M-3M-0M-0M-2-----------1-------------------------|

                                                     
----------------------------------------------------|
----------------------------------------------------|
----------------------------------------------------|
----------------------------------------------------|
----------------------------------------------------|
--0-----1--2--0-----1--2--0-----1--2--0-----1--2----|

                                                     
----------------------------------------------------|
----------------------------------------------------|
----------------------------------------------------|
----------------------------------------------------|
----------------------------------------------------|
--0-----1--2--0-----1--2--0-----1--2--0-----1--2----|

                                                                                
--------------------------------------------------------------------------------
--------------------------------------------------------------------------------
--------------------------------------------------------------------------------
--------------------------------------------------------------------------------
--1--1--1--1--2--2--3--3--1--1--1--1--2--2--3--3--1--1--1--1--2--2--3--3--1--1--
--1--1--1--1--2--2--3--3--1--1--1--1--2--2--3--3--1--1--1--1--2--2--3--3--1--1--

                     
--------------------|
--------------------|
--------------------|
--------------------|
1--1--2--2--3--3----|
1--1--2--2--3--3----|

                                                                                
--------------------------------------------------------------------------------
--------------------------------------------------------------------------------
--------------------------------------------------------------------------------
--------------------------------------------------------------------------------
--1--1--1--1--2--2--3--3--1--1--1--1--2--2--3--3--1--1--1--1--2--2--3--3--1--1--
--1--1--1--1--2--2--3--3--1--1--1--1--2--2--3--3--1--1--1--1--2--2--3--3--1--1--

                                                                          
--------------------|----------------------------------------------------|
--------------------|----------------------------------------------------|
--------------------|----------------------------------------------------|
--------------------|----------------------------------------------------|
1--1--2--2--3--3----|--6-----7--8--6-----7--8--6-----7--8--6-----7--8----|
1--1--2--2--3--3----|--6-----7--8--6-----7--8--6-----7--8--6-----7--8----|

                                                     
----------------------------------------------------|
----------------------------------------------------|
----------------------------------------------------|
----------------------------------------------------|
--6-----7--8--6-----7--8--6-----7--8--6-----7--8----|
--6-----7--8--6-----7--8--6-----7--8--6-----7--8----|

                                                                                
--------------------------------------------------------------------------------
--------------------------------------------------------------------------------
--------------------------------------------------------------------------------
--------------------------------------------------------------------------------
--1--1--1--1--2--2--3--3--1--1--1--1--2--2--3--3--1--1--1--1--2--2--3--3--1--1--
--1--1--1--1--2--2--3--3--1--1--1--1--2--2--3--3--1--1--1--1--2--2--3--3--1--1--

                     
--------------------|
--------------------|
--------------------|
--------------------|
1--1--2--2--3--3----|
1--1--2--2--3--3----|

                                                                                
--------------------------------------------------------------------------------
--------------------------------------------------------------------------------
--------------------------------------------------------------------------------
--------------------------------------------------------------------------------
--1--1--1--1--2--2--3--3--1--1--1--1--2--2--3--3--1--1--1--1--2--2--3--3--1--1--
--1--1--1--1--2--2--3--3--1--1--1--1--2--2--3--3--1--1--1--1--2--2--3--3--1--1--

                                                                 
--------------------|----------|----------|----------|----------|
--------------------|----------|----------|----------|----------|
--------------------|----------|----------|----------|----------|
--------------------|----------|----------|----------|----------|
1--1--2--2--3--3----|--1--7----|--0--6----|----------|----------|
1--1--2--2--3--3----|--1--7----|--0--6----|----------|----------|

  ^  v  ^  v              ^  v  ^  v                 
----------------------------------------------------|
----------------------------------------------------|
----------------------------------------------------|
----------------------------------------------------|
--0--0--0--0--xg----------0--0--0--0--xg------------|
--0--0--0--0--xg----------0--0--0--0--xg------------|

  ^  v  ^  v              ^  v  ^  v                 
----------------------------------------------------|
----------------------------------------------------|
----------------------------------------------------|
----------------------------------------------------|
--0--0--0--0--xg----------0--0--0--0----------------|
--0--0--0--0--xg----------0--0--0--0--7--6--5--4----|

                                                          
----------------------------|----------------------------|
----------------------------|----------------------------|
----------------------------|----------------------------|
----------------------------|----------------------------|
--3-----3-----3-------------|--3-----3-----3-------------|
--3-----------3-----6-------|--3-----------3-----6-------|

                             
----------------------------|
----------------------------|
----------------------------|
----------------------------|
--3-----3-----3-------------|
--3-----------3-----6-------|

                                         =           
----------------------------------------------------|
----------------------------------------------------|
----------------------------------------------------|
----------------------------------------------------|
----------------------------------------------------|
--3M-3M-3M-3M-0M-0M-0M-0M-1M-1M-1M-1M-2--2L-2L-2~---|

                                         =           
----------------------------------------------------|
----------------------------------------------------|
----------------------------------------------------|
----------------------------------------------------|
----------------------------------------------------|
--3M-3M-3M-3M-0M-0M-0M-0M-1M-1M-1M-1M-2--2L-2L-2~---|

                                         =           
----------------------------------------------------|
----------------------------------------------------|
----------------------------------------------------|
----------------------------------------------------|
----------------------------------------------------|
--3M-3M-3M-3M-0M-0M-0M-0M-1M-1M-1M-1M-2--2L-2L-2~---|

                                         =           
----------------------------------------------------|
----------------------------------------------------|
----------------------------------------------------|
----------------------------------------------------|
----------------------------------------------------|
--3M-3M-3M-3M-0M-0M-0M-0M-1M-1M-1M-1M-2--2L-2L-2~---|

                                         =           
----------------------------------------------------|
----------------------------------------------------|
----------------------------------------------------|
----------------------------------------------------|
----------------------------------------------------|
--3M-3M-3M-3M-0M-0M-0M-0M-1M-1M-1M-1M-2--2L-2L-2~---|

  ^  v  ^  v  ^  v  ^  v  ^  v  ^  v  ^  v  ^  v  ^  v  ^  v  ^  v  ^  v  ^  v  
--------------------------------------------------------------------------------
--------------------------------------------------------------------------------
--------------------------------------------------------------------------------
--3--3--3--3--3--3--3--3--0--0--0--0--0--0--0--0--1--1--1--1--1--1--1--1--2--2--
--------------------------------------------------------------------------------
--3--3--3--3--3--3--3--3--0--0--0--0--0--0--0--0--1--1--1--1--1--1--1--1--2--2--

^  v  ^  v  ^  v     
--------------------|
--------------------|
--------------------|
2--2--2--2--2--2----|
--------------------|
2--2--2--2--2--2----|

  ^  v  ^  v  ^  v  ^  v  ^  v  ^  v  ^  v  ^  v  ^  v  ^  v  ^  v  ^  v  ^  v  
--------------------------------------------------------------------------------
--------------------------------------------------------------------------------
--------------------------------------------------------------------------------
--3--3--3--3--3--3--3--3--0--0--0--0--0--0--0--0--1--1--1--1--1--1--1--1--2--2--
--------------------------------------------------------------------------------
--3--3--3--3--3--3--3--3--0--0--0--0--0--0--0--0--1--1--1--1--1--1--1--1--2--2--

^  v  ^  v  ^  v     
--------------------|
--------------------|
--------------------|
2--2--2--2--2--2----|
--------------------|
2--2--2--2--2--2----|

  ^  v  ^  v  ^  v  ^  v  ^  v  ^  v  ^  v  ^  v  ^  v  ^  v  ^  v  ^  v  ^  v  
--------------------------------------------------------------------------------
--------------------------------------------------------------------------------
--------------------------------------------------------------------------------
--3--3--3--3--3--3--3--3--0--0--0--0--0--0--0--0--1--1--1--1--1--1--1--1--2--2--
--------------------------------------------------------------------------------
--3--3--3--3--3--3--3--3--0--0--0--0--0--0--0--0--1--1--1--1--1--1--1--1--2--2--

^  v  ^  v  ^  v
--------------------|----------------------------------------------------||
--------------------|----------------------------------------------------||
--------------------|----------------------------------------------------||
2--2--2--2--2--2----|----------------------------------------------------||
--------------------|--3M-3M-0M-0M-2-------------------------------------||
2--2--2--2--2--2----|--3M-3M-0M-0M-2-------------------------------------||
exibições 871
Acordes para:
    Composição: Mushroomhead Colaboração e revisão:
    • Alejandro AlexRex360

    0 comentários

    mostrar mais comentários

    Conseguiu tocar?

    0 tocaram 0 ainda não

    Grave um vídeo tocando Qwerty e mande pra gente!

    00:00 / 00:00
    outros vídeos desta música
    repetir qualidade Automático
    Outros vídeos desta música
    00:00 / 00:00
    Automático
    OK