Cifra Club

Eclipse

Musical San Francisco

Cifra: Principal
exibições 4.163
Tom: A
Intro: A  E  D9  D

E|------------------------|
B|------------3/5---3-2-3-|
G|--2-2/4-4---------------|
D|------------------------|
A|------------------------|
E|------------------------|

( A  E  F#m  D )

E|----9--9--9--9--9--9--9--9--7--7--7--9--9--9--7--7--7-10-10-10--9--9--9--9--7--7--7--9--9--9--7--7--7-|
B|---10-10-10-10-10-10-10-10-10-10-10-10-10-10-10-10-10-10-10-10-10-10-10-10-10-10-10-10-10-10-10-10-10-|
G|------------------------------------------------------------------------------------------------------|
D|------------------------------------------------------------------------------------------------------|
A|------------------------------------------------------------------------------------------------------|
E|------------------------------------------------------------------------------------------------------|

E|---10-10-10--9--9--9--9--7--7--7--9--9--9--7--7--7-10-10-10--9--9--9--9--7-|
B|---10-10-10-10-10-10-10-10-10-10-10-10-10-10-10-10-10-10-10-10-10-10-10-10-|
G|---------------------------------------------------------------------------|
D|---------------------------------------------------------------------------|
A|---------------------------------------------------------------------------|
E|---------------------------------------------------------------------------|


A               E              F#m
 De repente o sol desapareceu
            D                 A
 E a escuridão tomou seu lugar
               E              F#m
 Um anjo tão lindo me apareceu
              D                  A
 E eu aqui parado pude então notar

( A  E  F#m  D  A  E  F#m  E  D )

A               E              F#m
  De repente o sol desapareceu
             D                 A
  E a escuridão tomou seu lugar
                E              F#m
  Um anjo tão lindo me apareceu
               D                  A
  E eu aqui parado pude então notar

         E         F#m          D              A
Que era ela o presente que eu tanto pedi aos céus
     E             F#m            D                  A  E
Seu olhar tão envolvente e o seu beijo tem sabor de mel

A               E              F#m
  De repente o sol desapareceu
             D                 A
  E a escuridão tomou seu lugar
                E              F#m
  Um anjo tão lindo me apareceu
               D                  A
  E eu aqui parado pude então notar

( A  E  F#m  D  A  E  F#m  E  D )

A           E
  Da escuridão
                   F#m
  Ela me trouxe a luz
            D                 A
  Reorganizou toda a minha vida
              E            F#m
  Me ensinou a amar, amar, amar
       D        E
  Só vivo por você

A               E              F#m
  De repente o sol desapareceu
             D                 A
  E a escuridão tomou seu lugar
                E              F#m
  Um anjo tão lindo me apareceu
               D                  A
  E eu aqui parado pude então notar

         E         F#m          D              A
Que era ela o presente que eu tanto pedi aos céus
     E             F#m            D                  A  E
Seu olhar tão envolvente e o seu beijo tem sabor de mel

A               E              F#m
  De repente o sol desapareceu
             D                 A
  E a escuridão tomou seu lugar
                E              F#m
  Um anjo tão lindo me apareceu
               D                  A
  E eu aqui parado pude então notar

( A  E  F#m  D  A  E  F#m  E  D  A )
Acordes para:
    Composição: Alcebias Flausino / Fernando Paloni Colaboração e revisão:
    • Daniel Fogaça

    0 comentários

      mostrar mais comentários

      Conseguiu tocar?

      0tocaram0ainda não

      Grave um vídeo tocando Eclipse e mande pra gente!

      00:00 / 00:00
      outros vídeos desta música
      repetirqualidadeautomática
      Outro vídeos desta música
        00:00 / 00:00
        automática
        OK