Cifra Club

Final Slowdance

Mxpx

Cifra: Principal (violão e guitarra)
tom: D
x palm mute
/ slide

Intro

E---------------------------1-1----
B-----------------------2-4--------
G-7--------------------------------
D-7--------------------------------
A-5--------------------------------
E----------------------------------
  let ring...bass fill


----pic scratch-----


Verse for whole song

"Takin' all the space up in my head...."
E------------------------------------------
B------------------------------------------
G-----------------------xx7xx7xx7xx7-------
D-4444444444444444444---xx7xx7xx7xx7-------
A-4444444444444444444---xx5xx5xx5xx5-------
E-2222222222222222222----------------------

"All the things we could...."
E------------------------------------------
B------------------------------------------
G------------------------------------------
D-44444444444444455555555555577777777777777
A-44444444444444455555555555577777777777777
E-22222222222222233333333333355555555555555

"Hard for me to try and understand...."
E------------------------------------------
B------------------------------------------
G-----------------------xx7xx7xx7xx7-------
D-4444444444444444444---xx7xx7xx7xx7-------
A-4444444444444444444---xx5xx5xx5xx5-------
E-2222222222222222222----------------------

"The way I think about you..."
E------------------------------------------
B------------------------------------------
G------------------------------------------
D-44444444444444455555555555557777777777777
A-44444444444444455555555555557777777777777
E-22222222222222233333333333335555555555555


Chorus

"Am I running out of time...."
E------------------------------------------
B------------------------------------------
G-7777777777777---------------4444444444444
D-7777777777777-4444444444444-4444444444444
A-5555555555555-4444444444444-2222222222222
E---------------2222222222222--------------

E-------------------
B-------------------
G-------------------
D-55555555/777777777
A-55555555/777777777
E-33333333/555555555

"I know I missed the marking...."
E------------------------------------------
B------------------------------------------
G-7777777777777---------------4444444444444
D-7777777777777-4444444444444-4444444444444
A-5555555555555-4444444444444-2222222222222
E---------------2222222222222--------------

E-------------------
B-------------------
G-------------------
D-55555555/777777777
A-55555555/777777777
E-33333333/555555555

"My words don't come out easily..."
E------------------------------------------
B------------------------------------------
G------------------------------------------
D-5555555555555555555555/777777777777777777
A-5555555555555555555555/777777777777777777
E-3333333333333333333333/555555555555555555

"So i will tell you honestly...."
E------------------------------------------
B------------------------------------------
G-777777777777-----------------------------
D-777777777777-44444444444444444-----------
A-555555555555-44444444444444444-----------
E--------------22222222222222222-----------

"No one has to spend eternity..."
E----------------------------
B----------------------------
G----------------------------
D-555555555555777777777777777
A-555555555555777777777777777
E-333333333333555555555555555

**Intro Again** 
 
--pic slide--

**Verse Again**
00:00 / 00:00
Outros vídeos desta música
Repetir
Outros vídeos desta música
Composição de Gérard Rinaldi
Colaboração e revisão:
  • Paulo Jaffet
771 exibições
    • ½ Tom
    • A
    • Bb
    • B
    • C
    • Db
    • D
    • Eb
    • E
    • F
    • F#
    • G
    • Ab
  • Adicionar à lista

    0 comentários

    Ver todos os comentários

    Conseguiu tocar?

    0 Tocaram 0 Ainda não

    Grave um vídeo tocando Final Slowdance e nos envie!

    Entre para oCifra Club PRO

    Tenha acesso a benefícios exclusivos no App e no Site

    • Chega de anúncios

    • Prioridade de compra em lançamentos

    • Mais recursos no app do Afinador

    • Atendimento Prioritário

    • Descontos nos produtos Cifra Club

    • Ajude a produzir mais conteúdo

    00:00 / 00:00

    Cifra Club Pro

    Aproveite o Cifra Club com benefícios exclusivos e sem anúncios
    Cifra Club Pro
    Aproveite o Cifra Club com benefícios exclusivos e sem anúncios
    OK