Cifra Club

Duas

Nadson o Ferinha

Cifra: Principal (violão e guitarra)
Selo Cifra Club: esta cifra foi revisada para atender aos critérios oficiais da nossa Equipe de Qualidade.
tom: G
[Intro] C  Em  G  D
        C  Em  D

[Tab - Intro]

Parte 1 de 2
E|-----------------------------------------------------|
B|-----------------------------------------------------|
G|-----4---5------4----------4---4---------------------|
D|-5-7---7---------------5-7---7--------7--------------|
A|-----------------------------------------------------|
E|-----------------------------------------------------|

Parte 2 de 2
E|--------------------------------3/5--5/7-------------|
B|-----------------------3/7-7-------------------------|
G|-----4-7-5------4------------------------------------|
D|-5-7-------------------------------------------------|
A|-----------------------------------------------------|
E|-----------------------------------------------------|

[Primeira Parte]

C
Antes de você
          G                     Em
Talvez você tivesse todos os motivos
                   D
Pra desconfiar de mim
C                         G
Eu fiz tanta coisa no passado
                      Em
Mas não tinha do meu lado
              D
Uma mulher assim

[Pré-Refrão]

              C         G
Se quer procurar, procura
               Em      D
Se quer vasculhar, vasculha
                C     G
Se eu tivesse que ter outra
   D
Escuta

[Refrão]

                       C   Em    
Se eu tivesse que ter du___as
       G                     D
Uma seria você, e a outra, uma filha sua
 C   Em
Du___as
              G                   D 
Com o olho igual ao meu e a boca sua
              Am  G
Eu não te troca_ria
             Em   D
Por nada nessa vida
              Am  G
Eu não te troca_ria
 D 
Nunca

[Primeira Parte]

C 
Antes de você
          G                     Em
Talvez você tivesse todos os motivos
                   D 
Pra desconfiar de mim
C                         G
Eu fiz tanta coisa no passado
                      Em
Mas não tinha do meu lado
              D 
Uma mulher assim

[Pré-Refrão]

              C         G
Se quer procurar, procura
               Em      D 
Se quer vasculhar, vasculha
                C     G
Se eu tivesse que ter outra
   D 
Escuta

[Refrão]

                       C   Em    
Se eu tivesse que ter du___as
       G                     D 
Uma seria você, e a outra, uma filha sua
 C   Em
Du___as
              G                   D 
Com o olho igual ao meu e a boca sua
              Am  G
Eu não te troca_ria
             Em   D
Por nada nessa vida
              Am  G
Eu não te troca_ria
 D
Nunca

[Final] C  G  D

[Tab - Final]
E|--------------------------------3/5-5----------------|
B|-----------------------------------------------------|
G|-----4---5------4------------------------------------|
D|-5-7---7---------------5/7-7-------------------------|
A|-----------------------------------------------------|
E|-----------------------------------------------------|
Outros vídeos desta música
193.359 exibições
  • Simplificar cifra
    • ½ Tom
    • A
    • Bb
    • B
    • C
    • Db
    • D
    • Eb
    • E
    • F
    • F#
    • G
    • Ab
  • Adicionar à lista

Afinação da cifra

Afinador online

    0 comentários

    Ver todos os comentários

    Entre para o Cifra Club PRO

    Tenha acesso a benefícios exclusivos no App e no Site

    • Chega de anúncios

    • Mais recursos no app do Afinador

    • Atendimento Prioritário

    • Aumente seu limite de lista

    • Ajude a produzir mais conteúdo

    Cifra Club Pro

    Aproveite o Cifra Club com benefícios exclusivos e sem anúncios
    Cifra Club Pro
    Aproveite o Cifra Club com benefícios exclusivos e sem anúncios
    OK