Cifra Club

Erro Gostoso

Nadson o Ferinha

Cifra: Principal (violão e guitarra)
Selo Cifra Club: esta cifra foi revisada para atender aos critérios oficiais da nossa Equipe de Qualidade.
tom: B
[Intro] B  E

[Tab - Solo]

E|-------------------------------------------------|
B|-------------------------------------------------|
G|------4/6-6-6-6-6--8-6~-4---4/6-6-6-6-6--8--6~-4-|
D|---4---------------------4~----------------------|
A|-------------------------------------------------|
E|-------------------------------------------------|

[Primeira Parte]

 B
Calma, deixa eu respirar um pouco
                G#m
Nós somos dois loucos

Olha a gente nessa cama de novo
 E
O que cê sente quando cê mente na minha cara
                       B
Pra ter uma hora de cama suada?

[Pré-Refrão]

          C#m
E eu percebo a cada visita
           E 
Cê não gosta de mim

Cê gosta é da conquista

[Refrão]

B
Ah, agora como eu fico nessa casa?
          B         A#m       G#m
Com um sorriso e o choro no rosto?

Cê vem aqui, me acostuma errado
                                  E
Cola meus pedaços pra quebrar de novo
    C#m                            F#
Eu preciso aprender a falar não um pouco
              F#7
Pra esse erro gostoso

B
Ah, agora como eu fico nessa casa?
          B         A#m       G#m
Com um sorriso e o choro no rosto?

Cê vem aqui, me acostuma errado
                                  E
Cola meus pedaços pra quebrar de novo
    C#m                            F#
Eu preciso aprender a falar não um pouco
              F#7
Pra esse erro gostoso

[Solo] B  A#m  G#m  F#

[Tab - Solo]

E|----------------------------------------------------------|
B|----------------------------------------------------------|
G|--------4/6-6-6-6-6-6--8-6~-4-----4/6-6-6-6-6--8--6~-4----|
D|--2/4-4------------------------4~-------------------------|
A|----------------------------------------------------------|
E|----------------------------------------------------------|

E|----------------------------------------------------------|
B|-----------5/7-----------------5/7------------------------|
G|--------4-------4/6/8-------4------4/6/8--8-8-8-9--11-----|
D|--4/6-----------------6-6-6----------------------------9--|
A|----------------------------------------------------------|
E|----------------------------------------------------------|

 E
O que cê sente quando cê mente na minha cara
                       B
Pra ter uma hora de cama suada?

         C#m
E eu percebo a cada visita
           E 
Cê não gosta de mim

Cê gosta é da conquista

B
Ah, agora como eu fico nessa casa?
          B         A#m       G#m
Com um sorriso e o choro no rosto?

Cê vem aqui, me acostuma errado
                                  E
Cola meus pedaços pra quebrar de novo
    C#m                            F#
Eu preciso aprender a falar não um pouco
              F#7
Pra esse erro gostoso

B
Ah, agora como eu fico nessa casa?
          B         A#m       G#m
Com um sorriso e o choro no rosto?

Cê vem aqui, me acostuma errado
                                  E
Cola meus pedaços pra quebrar de novo
    C#m                            F#
Eu preciso aprender a falar não um pouco
              F#7
Pra esse erro gostoso

[Tab - Solo Final]

E|------------------------------------------|
B|------------------------------------------|
G|------4/6-6-6-6-6--8-6~-4-----------------|
D|---4---------------------4~---------------|
A|------------------------------------------|
E|------------------------------------------|
Outros vídeos desta música
56.379 exibições
    • ½ Tom
    • A
    • Bb
    • B
    • C
    • Db
    • D
    • Eb
    • E
    • F
    • F#
    • G
    • Ab
  • Adicionar à lista

Afinação da cifra

Afinador online

    0 comentários

    Ver todos os comentários

    Entre para o Cifra Club PRO

    Tenha acesso a benefícios exclusivos no App e no Site

    • Chega de anúncios

    • Mais recursos no app do Afinador

    • Atendimento Prioritário

    • Aumente seu limite de lista

    • Ajude a produzir mais conteúdo

    Cifra Club Pro

    Aproveite o Cifra Club com benefícios exclusivos e sem anúncios
    Cifra Club Pro
    Aproveite o Cifra Club com benefícios exclusivos e sem anúncios
    OK