Cifra Club

Não Digita

Nadson o Ferinha

Cifra: Principal (violão e guitarra)
Selo Cifra Club: esta cifra foi revisada para atender aos critérios oficiais da nossa Equipe de Qualidade.
tom: D (forma dos acordes no tom de Db) Capotraste na 1ª casa
[Intro] G  Dm  F  C

[Tab - Intro]

E|-----------------------------------------------|
B|-----------------------------------------------|
G|----6/7~--6--5-----6/7~--6--5----6/7~--6--5----|
D|--6-------------8--------------6------------6--|
A|-----------------------------------------------|
E|-----------------------------------------------|

E|-----------------------------------------------|
B|------9p8--------------------------------------|
G|----------8---8p6------------------------------|
D|-------------------8--6------------------------|
A|-----------------------------------------------|
E|-----------------------------------------------|

[Primeira-Parte]

 G                                       Dm
Eu sei, que suas amigas estão chamando pra curtir
                               F
Que tu já tá se arrumando pra sair
                            C
Mas você tá se maquiando à toa

              G
Por que vai borrar
                           Dm
No primeiro gole que você tomar
                            F
Quando o ferinha começar a tocar
                  C
Tu vai pegar o celular

[Refrão]

G                     Dm
Se tu for beber, não digita!
               F
Tu sabe que saudade não combina com bebida
               C
Tu sabe que saudade não combina com bebida

G                    Dm
E se for beber, não digita!
               F
Tu sabe que saudade não combina com bebida
               C
Tu sabe que saudade não combina com bebida

[Solo] G  Dm  F  C

[Tab - Solo]

E|--------------------------------------------------|
B|--------------------------------------------------|
G|------6/7~--6--5----6/7~--6--5-----6/7~--6--5-----|
D|----6------------8--------------6--------------6--|
A|--------------------------------------------------|
E|--------------------------------------------------|

E|--------------------------------------------------|
B|----------9p8-------------------------------------|
G|--------------8/10--8--6--------------------------|
D|--------------------------8--6--------------------|
A|--------------------------------------------------|
E|--------------------------------------------------|

   G                                        Dm
Eu sei, que suas amigas estão chamando pra curtir
                               F
Que tu já tá se arrumando pra sair
                            C
Mas você tá se maquiando à toa

              G
Por que vai borrar
                           Dm
No primeiro gole que você tomar
                            F
Quando o ferinha começar a tocar
                  C
Tu vai pegar o celular

[Refrão]

G                     Dm
Se tu for beber, não digita!
               F
Tu sabe que saudade não combina com bebida
               C
Tu sabe que saudade não combina com bebida

G                     Dm
E se for beber, não digita!
               F
Tu sabe que saudade não combina com bebida
               C
Tu sabe que saudade não combina com bebida

[Tab - Final] G  Dm  F  C

E|--------------------------------------------------|
B|--------------------------------------------------|
G|------8~--6~--5----6/7~--6--5---------------------|
D|-----------------8-------------6~-----------------|
A|--------------------------------------------------|
E|--------------------------------------------------|
00:00 / 00:00
Outros vídeos desta música
Repetir
Outros vídeos desta música
30.223 exibições
    • ½ Tom
    • A
    • Bb
    • B
    • C
    • Db
    • D
    • Eb
    • E
    • F
    • F#
    • G
    • Ab
  • Adicionar à lista

Afinação da cifra

Afinador online

    0 comentários

    Ver todos os comentários

    Entre para o Cifra Club PRO

    Tenha acesso a benefícios exclusivos no App e no Site

    • Chega de anúncios

    • Mais recursos no app do Afinador

    • Atendimento Prioritário

    • Aumente seu limite de lista

    • Ajude a produzir mais conteúdo

    00:00 / 00:00

    Cifra Club Pro

    Aproveite o Cifra Club com benefícios exclusivos e sem anúncios
    Cifra Club Pro
    Aproveite o Cifra Club com benefícios exclusivos e sem anúncios
    OK