Cifra Club

Aprenda

A Força do Amor

Naldo Siilva

Cifra: Principal (violão e guitarra)
tom: E
Intro / Solo: A  E  A
E|--12-11-12-11--------------|----------------------|
B|--------------12-----------|--10-9-10-9-----------|
G|-----------------11--11-9--|------------9---------|
D|---------------------------|--------------9--7-6--|
A|---------------------------|----------------------|
E|---------------------------|----------------------|

E|--12-11-12-11--------------|-------------|
B|--------------12-----------|--10-9-------|
G|-----------------11--11-9--|-------11-9--|
D|---------------------------|-------------|
A|---------------------------|-------------|
E|---------------------------|-------------|


E                                B
Abriu minha visão o jeito que o amor
E                                  B
Tocando o pé no chão alcança as estrelas
A                        E
Tem poder de mover as montanhas
        B7                         E
Quando quer acontecer derruba as barreiras
A                           E
Para o amor não existem fronteiras
      B7
Tem a presa quando quer
         A/B       B7
Não tem hora de chegar
            E4 E
E não vai embo-ra

Solo: A  E  A

E                                B
Chamou minha atenção a força do amor
E                                B
Que é livre pra voar durar para sempre
A                         E
Quer voar navegar outros mares
       B                            E
Dá um tempo sem se ver mas não se separa
     A                           E
A saudade vem quando vê não tem volta
       B7
Mesmo quando eu quis morrer
     A/B      B7               E
De ciúme de você, você me fez falta

B                         A
Sei, não é questão de aceitar
B                        C#m
Sim, não sou mais um a negar
                      A
A gente não pode impedir
                        F#4 F#
Se a vida cansou de ensinar
                      A/B B
Sei que o amor nos dá a-sa
              E4  E
Mas volta pra ca-sa

Solo: A  E  A

(Repete Tudo)
Composição de Roupa Nova
Colaboração e revisão:
  • Naldo Cantor
55 exibições
    • ½ Tom
    • A
    • Bb
    • B
    • C
    • Db
    • D
    • Eb
    • E
    • F
    • F#
    • G
    • Ab
  • Adicionar à lista

    0 comentários

    Ver todos os comentários

    Conseguiu tocar?

    0 Tocaram 0 Ainda não

    Grave um vídeo tocando A Força do Amor e nos envie!

    00:00 / 00:00
    outros vídeos desta música
    repetir qualidade Automático
    Outros vídeos desta música
    00:00 / 00:00
    Automático

    Cifra Club Pro

    Aproveite o Cifra Club com benefícios exclusivos e sem anúncios
    Cifra Club Pro
    Aproveite o Cifra Club com benefícios exclusivos e sem anúncios
    OK