Cifra Club

Rose

Nana

Cifra: Principal (violão e guitarra)
Selo Cifra Club: esta cifra foi revisada para atender aos critérios oficiais da nossa Equipe de Qualidade.
tom: C
(intro 4x)

  D5  D/5+
E |-----------------------------|------------------------------|
B |---3----3--3---3--3--3---|---3----3--3---3--3--3-----|
G |---2----2--2---2--2--2---|---3----3--3---3--3--3-----|
D |---0----0--0---0--0--0---|---0----0--0---0--0--0-----|
A |-----------------------------|------------------------------|
E |-----------------------------|------------------------------|

  Dsus4    D5
E |-----------------------------|-----------------------------|
B |---3----3--3---3--3--3---|---3----3--3---3--3--3----|
G |---0----0--0---0--0--0---|---2----2--2---2--2--2----|
D |---0----0--0---0--0--0---|---0----0--0---0--0--0----|
A |-----------------------------|-----------------------------|
E |-----------------------------|-----------------------------|

Dm C Bb C Dm
When I was darkness at that time fueteru kuchibiru
C Bb C
Heya no katasumi de I cry
Dm C Bb C Dm
Mogakeba mogaku hodo tsukisasaru kono kizu
C Bb C
Yaburareta yakusoku hurt me

Bbm Am
Nobody can save me
Bbm Am
Kamisama hitotsu dake
Bbm Am  Am
Tomete saku you na my love

Dm
I need your love
C
I'm a broken rose
Bb
Maichiru kanashimi your song
Bbm
Ibasho nai kodoku na my life

Dm
I need your love
C
I'm a broken rose
Bb
Oh baby, help me from frozen pain
Bbm
With your smile, your eyes, and sing me, just for me

( Dm C Bb )
I wanna need your love...
I'm a broken rose
I wanna need your love...

Dm C Bb A

Dm C Bb C Dm
When you were with me at that time Anata no kage wo oikakete
C Bb C
Hadashi de kakemekete stop me
Dm C Bb C  Dm
Tozaseba tozasu hodo motsureteku kono ai
C Bb C
Yuruyaka ni yasashiku kiss me

Bbm Am
Nobody can save me
Bbm Am
Kogoeru bara no you ni
Bbm Am  Am
Yasashiku nemuritai my tears

Dm
I need your love
C
I'm a broken rose
Bb
Kareochiru kanashimi my soul
Bbm
Kuzureochiru kodoku na little girl

Dm
I need your love
C
I'm a broken rose
Bb
Oh baby, help me from frozen pain

Bbm  Dm  C Bb
With your smile, your eyes, and sing me, just for me

( Dm C Bb ) (3x)
I wanna need your love
I'm a broken rose
I wanna need your love
Dm C Bb A

(silêncio)

Dm
I need your love
C
I'm a broken rose
Bb
Maichiru kanashimi your song
Bbm
Ibasho nai kodoku na my life

Dm
I need your love
C
I'm a broken rose
Bb
Oh baby, help me from frozen pain
Bbm
With your smile, your eyes, and sing me, just for me

( Dm C Bb )
I wanna need your love...
I'm a broken rose
I wanna need your love...

Dm C Bb A D
Outros vídeos desta música
    9.318 exibições
      • ½ Tom
      • A
      • Bb
      • B
      • C
      • Db
      • D
      • Eb
      • E
      • F
      • F#
      • G
      • Ab
    • Adicionar à lista

    Afinação da cifra

    Afinador online

      0 comentários

      Ver todos os comentários

      Entre para o Cifra Club PRO

      Tenha acesso a benefícios exclusivos no App e no Site

      • Chega de anúncios

      • Badges exclusivas

      • Mais recursos no app do Afinador

      • Atendimento Prioritário

      • Aumente seu limite de lista

      • Ajude a produzir mais conteúdo

      Cifra Club Pro

      Aproveite o Cifra Club com benefícios exclusivos e sem anúncios
      Cifra Club Pro
      Aproveite o Cifra Club com benefícios exclusivos e sem anúncios
      OK