Cifra Club

N

Nando Reis

Cifra: Versão 2 (violão e guitarra)
tom: F
Intro.: F C Dm C F C Dm

(Solo1)

|-------------6-6----------------------11-9------------9-----------------|       
|----------7------------7----7-------7-------11-9-h-11----11-------7-----|
|---6-h-8---------6-h-8----8---6-h-8-------------------------6-h-8-------|
|------------------------------------------------------------------------|
|------------------------------------------------------------------------|
|------------------------------------------------------------------------|

F           C           Dm
E agora, o que vou fazer?
        Gm                                      C
Se seus lábios ainda estão molhando os lábios meus?
     Gm                                 C
E as lágrimas não secaram com o sol que fez?

F            C             Dm
E agora como posso te esquecer?
           Gm                      C
Se o seu cheiro ainda está no travesseiro?
        Gm                          C
E o seu cabelo está enrolado no meu peito?

Bb                 Am
Espero que o tempo passe
                    Dm
Espero que a semana acabe
                           C
Pra que eu possa te ver de novo      
Bb                 Am
Espero que o tempo voe
                Dm
Para que você retorne

                    G
Pra que eu possa te abraçar
        Bb
e te beijar
   F
de novo        

(solo2)
|-------------6-6----------------------------11-9-11-16-14---------------|       
|----------7------------7----7-----------7-------------------------7-----|
|---6-h-8---------6-h-8----8------6-h-8----------------------6-h-8-------|
|------------------------------------------------------------------------|
|------------------------------------------------------------------------|
|------------------------------------------------------------------------| 

F           C           Dm
E agora, como passo sem te ver?
        Gm
Se o seu nome está gravado no
                  C
meu braço como um selo?
        Gm
Nossos nomes que tem o N
        C
como um elo

F          C            Dm
E agora como posso te perder?
          Gm
Se o teu corpo ainda guarda o
      C
meu prazer?
        Gm
E o meu corpo está moldado
       C
com o teu? 

Bb                 Am
Espero que o tempo passe
                    Dm
Espero que a semana acabe
                           C
Pra que eu possa te ver de novo      
Bb                 Am
Espero que o tempo voe
                Dm
Para que você retorne

                    G
Pra que eu possa te abraçar...

Bb                 Am
Espero que o tempo passe
                    Dm
Espero que a semana acabe
                           C
Pra que eu possa te ver de novo      
Bb                 Am
Espero que o tempo voe
                Dm
E que você retorne

                    G
Pra que eu possa te abraçar
        Bb
e te beijar
   F
de novo        

(Solo3)

|-------------6-6---------------------------11-9-----------9---------|       
|----------7------------7----7-----------7-------11-9-h-11----11-----|
|---6-h-8---------6-h-8----8------6-h-8------------------------------|
|--------------------------------------------------------------------|
|--------------------------------------------------------------------|
|--------------------------------------------------------------------|

|----11-11-9-h-11--11-9-------------------------11-16---------| 
|-----------------------11-9-11-------7----7------------------|
|-------------------------------6-h-8----8--------------------|
|-------------------------------------------------------------|
|-------------------------------------------------------------|
|-------------------------------------------------------------|
00:00 / 00:00
Outros vídeos desta música
Repetir
Outros vídeos desta música
Composição de Nando Reis
Colaboração e revisão:
  • Marcio Nascimento
  • Diego Denizar
  • thiago nasser
128.501 exibições
    • ½ Tom
    • A
    • Bb
    • B
    • C
    • Db
    • D
    • Eb
    • E
    • F
    • F#
    • G
    • Ab
  • Adicionar à lista

    0 comentários

    Ver todos os comentários
    00:00 / 00:00
    Capítulos
    • Início
    • Tocando a música
    • Acordes da Introdução e das Estrofes
    • Tocando Introdução e Primeira Parte
    • Ensinando Ritmos da música
    • Ensinando Solo da Introdução
    • Acordes do Refrão
    • Tocando Refrão
    • Ensinando Solo do Refrão
    • Tocando Final
    • Ensinando Solo do Final
    • Encerramento

    Cifra Club Pro

    Aproveite o Cifra Club com benefícios exclusivos e sem anúncios
    Cifra Club Pro
    Aproveite o Cifra Club com benefícios exclusivos e sem anúncios
    OK