Cifra Club

O Segundo Sol

Nando Reis

Cifra: Principal (violão e guitarra)
tom: A
[Intro] 

[Riff 1]

E|------------------------------------------|
B|------------------------------------------|
G|------------------------------------------|
D|------------------------------------------|
A|------------------------------------------|
E|-3p2-0------------------------------------|

[Primeira Parte]

E                          Bm7
  Quando o segundo sol chegar
      D           D7M
Para realinhar as orbitas dos
    A
Planetas

[Riff 1]

E|------------------------------------------|
B|------------------------------------------|
G|------------------------------------------|
D|------------------------------------------|
A|------------------------------------------|
E|-3p2-0------------------------------------|

E
  Derrubando com assombro
      Bm7
Exemplar
             D
O que os astrônomos diriam se
  D7M
Tratar
      A        
De um outro cometa

[Riff 2]

E|------------------------------------------|
B|------------------------------------------|
G|------------------------------------------|
D|-2h4-2---4--------------------------------|
A|-------4---2------------------------------|
E|--------------3p2-0-----------------------|

E                          Bm7
  Quando o segundo sol chegar
      D            D7M
Para realinhar as orbitas dos
    A
Planetas

[Riff 1]

E|------------------------------------------|
B|------------------------------------------|
G|------------------------------------------|
D|------------------------------------------|
A|------------------------------------------|
E|-3p2-0------------------------------------|

E
  Derrubando com assombro
      Bm7
Exemplar
             D
O que os astrônomos diriam se
  D7M
Tratar
      A        
De um outro cometa

[Riff 3]

E|------------------------------------------|
B|------------------------------------------|
G|--------------------0---------------------|
D|-2h4-2---4------0h2-----------------------|
A|-------4----0h2---------------------------|
E|------------------------------------------|

[Segunda Parte]

   E                 E7
E|------------------------------------------|
B|------------------------------------------|
G|-4--4-6-7-6-7-x-11-9----------------------|
D|------------------------------------------|
A|-2--2-4-5-4-5-x-9--7----------------------|
E|------------------------------------------|

   E                    E7
E|------------------------------------------|
B|------------------------------------------|
G|-4--4-6-7-6-7-x-11--11/13-13--------------|
D|------------------------------------------|
A|-2--2-4-5-4-5-x-9----9/11-11--------------|
E|------------------------------------------|

   E                 E7
E|------------------------------------------|
B|------------------------------------------|
G|-4--4-6-7-6-7-x-11-9----------------------|
D|------------------------------------------|
A|-2--2-4-5-4-5-x-9--7----------------------|
E|------------------------------------------|

   E                    E7
E|------------------------------------------|
B|------------------------------------------|
G|-4--4-6-7-6-7-x-11--11/13-13--------------|
D|------------------------------------------|
A|-2--2-4-5-4-5-x-9----9/11-11--------------|
E|------------------------------------------|
                       
E|------------------------------------------|
B|------------------------------------------|
G|-4--4-6-7-9-11-9-6------------------------|
D|------------------------------------------|
A|-2--2-4-5-7-9--7-4------------------------|
E|------------------------------------------|

( E  E7  E  E7 )

E
 Não digo que não me
         E7
Surpreendi
E
 Antes que eu visse, você disse e eu não pude
   E7
Acreditar
D           A           Bm7  
  Mas você pode ter certeza   

[Refrão]

A                              Em7
  De que o seu telefone irá tocar
    D                   A/C#
Em sua nova casa que abriga
          Bm7
Agora a trilha
     A                      G
Incluída nessa minha conversão
A                     Em7
  Eu so queria te contar
               D
Que eu fui lá fora e vi dois sois num dia
A/C#       Bm7      A
E a vida que ardia sem explicação

[Riff 1]

E|------------------------------------------|
B|------------------------------------------|
G|------------------------------------------|
D|------------------------------------------|
A|------------------------------------------|
E|-3p2-0------------------------------------|

[Primeira Parte]

E                          Bm7
  Quando o segundo sol chegar
      D            D7M
Para realinhar as orbitas dos
    A
Planetas

E
  Derrubando com assombro
      Bm7
Exemplar
             D
O que os astrônomos diriam se
  D7M
Tratar
      A        
De um outro cometa

[Segunda Parte]

( E  E7  E  E7 )

E
 Não digo que não me
         E7
Surpreendi
E
 Antes que eu visse, você disse e eu não pude
   E7
Acreditar
D           A           Bm7  
  Mas você pode ter certeza   

[Refrão]

A                              Em7
  De que o seu telefone irá tocar
    D                   A/C#
Em sua nova casa que abriga
          Bm7
Agora a trilha
     A                      G
Incluída nessa minha conversão
A                     Em7
  Eu so queria te contar
               D
Que eu fui lá fora e vi dois sois num dia
A/C#       Bm7      A             G
E a vida que ardia sem explicação

A                              Em7
  De que o seu telefone irá tocar
    D                   A/C#
Em sua nova casa que abriga
          Bm7
Agora a trilha
     A                      G
Incluída nessa minha conversão
A                     Em7
  Eu so queria te contar
               D
Que eu fui lá fora e vi dois sois num dia
A/C#       Bm7      A            
E a vida que ardia sem explicação

    D
Explicação
     A
Não tem explicação
    D
Explicação
     A
Não tem explicação
    D
Explicação

     A
Não tem explicação
    D
Explicação
     A
Não tem explicação
    D
Explicação
              A/C#  Bm7
Não tem explica____ção
     D        A
Não tem, não tem
Composição de Nando Reis
Colaboração e revisão:
  • Thiago Almeida
1.018.178 exibições
    • ½ Tom
    • A
    • Bb
    • B
    • C
    • Db
    • D
    • Eb
    • E
    • F
    • F#
    • G
    • Ab
  • Adicionar à lista

    0 comentários

    Ver todos os comentários

    Conseguiu tocar?

    69 Tocaram 20 Ainda não

    Grave um vídeo tocando O Segundo Sol e nos envie!

    00:00 / 00:00
    Outros vídeos desta música
    Repetir Qualidade Automático
    Outros vídeos desta música
    00:00 / 00:00
    Automático
    Capítulos
    • Início
    • Acordes da introdução e da primeira parte
    • Tocando introdução e a primeira parte
    • Ensinando rítmo da primeira parte devagar
    • Ensinando Riff devagar
    • Acorde e Riff da segunda parte
    • Tocando segunda parte
    • Ensinando a segunda parte devagar
    • Acordes do refrão
    • Tocando o refrão
    • Ensinando o rítmo do refrão devagar
    • Acordes da última parte
    • Tocando a última parte
    • Ensinando o rítmo da última parte
    • Dicas
    • Encerramento

    Cifra Club Pro

    Aproveite o Cifra Club com benefícios exclusivos e sem anúncios
    Cifra Club Pro
    Aproveite o Cifra Club com benefícios exclusivos e sem anúncios
    OK