Cifra Club

Aprenda

Alone

Naruto

Cifra: Principal (violão e guitarra)
tom: G
1ª Parte:

E|--3--12--10--12--8----17--15--17--12-----|
B|-----------------------------------------|
G|-----------------------------------------|
D|-----------------------------------------|
A|-----------------------------------------|
E|-----------------------------------------|

E|--12--10--15--8----17--19--15--17--------|
B|-----------------------------------------|
G|-----------------------------------------|
D|-----------------------------------------|
A|-----------------------------------------|
E|-----------------------------------------|

2ª Parte :

E|--5----8--7----3--5----8--7----5----8--7----7--8--10--5---8--10--12--10--|
B|-------------------------------------------------------------------------|
G|-------------------------------------------------------------------------|
D|-------------------------------------------------------------------------|
A|-------------------------------------------------------------------------|
E|-------------------------------------------------------------------------|

3ª Parte:

Repita a 1ª parte adicionando essa sequência no final da mesma:

E|--17--19--15--17-----|
B|---------------------|
G|---------------------|   (2x)
D|---------------------|
A|---------------------|
E|---------------------|
Colaboração e revisão:
  • Fernando Carvalho
34.901 exibições
    • ½ Tom
    • A
    • Bb
    • B
    • C
    • Db
    • D
    • Eb
    • E
    • F
    • F#
    • G
    • Ab
  • Adicionar à lista

    0 comentários

    Ver todos os comentários

    Conseguiu tocar?

    27 Tocaram 0 Ainda não

    Grave um vídeo tocando Alone e nos envie!

    00:00 / 00:00
    outros vídeos desta música
    repetir qualidade Automático
    Outros vídeos desta música
    00:00 / 00:00
    Automático

    Cifra Club Pro

    Aproveite o Cifra Club com benefícios exclusivos e sem anúncios
    Cifra Club Pro
    Aproveite o Cifra Club com benefícios exclusivos e sem anúncios
    OK