Cifra Club

Blue Bird

Naruto

Cifra: Completa (violão e guitarra)
tom: D
E|----2-4--5----4---2-----2-4-5---7---------7---9-----2-4-5---4---2------|
B|--2------2----5---2---2-----3---7--10-10-----10---2-----2---5---2------|
G|---------2----4---2---------4---7------7------9------------------------|
D|---------0--------4-------------------------------------0-------4------|
A|--------------4-------------2---7-------------0-------------4----------|
E|-----------------------------------------------------------------------|

E|----9-7----9-7---0--0--2-2---9-----7----------7--5-4--5----------------|
B|--7------7----------0--2-2--10-----9-----------------------------------|
G|-----------------------2-2--------------------6---------4--------------|
D|-----------------------------0-0-0-0-0-0-0-0---------------7-6-7-------|
A|----------------------------------------------4----4----4--------------|
E|------7------7------0--2-2---------------------------------------------|

E|--5-4-2--4----------------------4--5-----5--4--2-0-2-------------------|
B|--------------5--2---7---6----7----2-----2--0------------0--2--2-2-2---|
G|--4------------------4---4--6---------2----------------2----2----------|
D|---------------------6---6---------------------------0------2----------|
A|--2---2-----2-2------4---4--4-------------------------------0----------|
E|-----------------------------------2--------0------------------0-------|

E|--------2-----0--0--0-----4-5-4------4--5----5--4--2-0-2---------------|
B|--3--5-----5-----------7------6----7----2----2--0-------------0--2--2--|
G|--2--------4-----------4---------6---------2----------------2----2-----|
D|--4--------6-----------4----------------------------------0------2-----|
A|--2--------4------------------4----------------------------------0-----|
E|-----------------------4----------------2-------0-------------------0--|

E|----------5--4--2-0-0---2-2----2-4--5-------------5-----4--5---4----4-4|
B|--2-2--3-----0------0---2-2--2-----------2---2----------5--7---5----5-5|
G|-------2----------------2-2------------2---2---2-----2-----------------|
D|-------4----------------------------0-------------0-----0----0---0-----|
A|-------2---------------------------------------------------------------|
E|-------------0------0---2-2--------------------------------------------|

E|--5--7------------7--5--4----2---------7--9---------7--9------9--12-10-|
B|--------5---5---5----2--2----2--7--10-----7--7--10--7--7------7---7--7-|
G|----------4---4------------------------------7---7---------------------|
D|-----------------------------------------------------------------------|
A|-----4------------4-------------------------------------------7------7-|
E|---------------------2-----2-2------------7------7-----7--7-7----------|

E|--------------------10--9--9--9--9-----2--4--5-5-5--4-4-4--2---2-2-2---|
B|-----------------10-----9--9--9--9--2--------2-2-2--5-5-5--2---2-2-2---|
G|-----------10-11-------10-10-10-10-----------2-2-2--6-6-6--2---2-2-2---|
D|--11-10-11-------------11-11-11-11-----------2-2-2--6-6-6--4---4-4-4---|
A|-----------------------11-11-11-11-----------0-0-0--4-4-4--4---4-4-4---|
E|---9--------------------9--9--9--9-------------------------2---2-2-2---|

E|----2-4-5-5-5--7------7---9-9---9----2-4-5-5-5---4-4-4--2--2-2--2------|
B|--2-----3-3-3--7--10--7---9-9---9--2-----2-2-2---5-5-5--2--2-2--2------|
G|--------2-2-2------7------9-9---9--------2-2-2---6-6-6--2--2-2--2------|
D|--------4-4-4-------------9-9---9--------2-2-2---6-6-6--4--4-4--4------|
A|--------2-2-2--7---7--7---9-9---9--------0-0-0---4-4-4--4--4-4--4------|
E|--------2-2-2-------------------0-----------------------2--2-2--2------|

E|----9-7----9-7--0--0--2-2----2-4--5-5-5--4-4-4-2---2-2--2--------------|
B|--7------7------0--0--2-2--2------2-2-2--5-5-5-2---2-2--2--------------|
G|----------------------2-2---------2-2-2--6-6-6-2---2-2--2--------------|
D|----------------------------------0-0-0--6-6-6-4---4-4--4--------------|
A|-----------------------------------------4-4-4-4---4-4--4--------------|
E|------7------7--0--0--2-2----------------------2---2-2--2--------------|

E|----2-4-5-5-5--7------7---9-9---9----2-4-5-5-5---4-4-4--2--2-2--2------|
B|--2-----3-3-3--7--10--7---9-9---9--2-----2-2-2---5-5-5--2--2-2--2------|
G|--------2-2-2------7------9-9---9--------2-2-2---6-6-6--2--2-2--2------|
D|--------4-4-4-------------9-9---9--------2-2-2---6-6-6--4--4-4--4------|
A|--------2-2-2--7---7--7---9-9---9--------0-0-0---4-4-4--4--4-4--4------|
E|--------2-2-2-------------------0-----------------------2--2-2--2------|

E|----9-7----9-7--0--0--2-2-----9-7----9-7--0--0--2-2----9-7----9-7-0-0--2-2-|
B|--7------7------0--0--2-2---7------7------0--0--2-2--7------7-----0-0--2-2-|
G|----------------------2-2-----------------------2-2--------------------2-2-|
D|---------------------------------------------------------------------------|
A|---------------------------------------------------------------------------|
E|------7------7--0--0--2-2-------7------7--0--0--2-2-------------7-0-0--2-2-|

E|---------------9---7-------------7-5-4-5-----------5-4-2-4--------------|
B|-----------10-10---9-----------------------------------------5-2--7-----|
G|--11-10-11-----------------------6-------4---------4--------------4-----|
D|---------------0-0-0-0-0-0-0-0--------------7-6-7-----------------5-----|
A|---------------------------------4---4---4-----------------2-2----4-----|
E|---------------------------------------------------2---2----------------|

E|-----------------4-----4-----4----5-------------------------------------|
B|------6----------2-----2-----2----2-------------------------------------|
G|------4----------4-----4-----4----2-------------------------------------|
D|------6-----------------------------------------------------------------|
A|--4-4-4-4-4-4-4---------------------------------------------------------|
E|-----------------2-2-2-2-2-2-2----2-------------------------------------|

00:00 / 00:00
Outros vídeos desta música
Repetir
Outros vídeos desta música
Composição de Yoshiki Mizuno
Colaboração e revisão:
  • Felipe Fernando
18.114 exibições
    • ½ Tom
    • A
    • Bb
    • B
    • C
    • Db
    • D
    • Eb
    • E
    • F
    • F#
    • G
    • Ab
  • Adicionar à lista

    0 comentários

    Ver todos os comentários

    Conseguiu tocar?

    6 Tocaram 2 Ainda não

    Grave um vídeo tocando Blue Bird e nos envie!

    Entre para oCifra Club PRO

    Tenha acesso a benefícios exclusivos no App e no Site

    • Chega de anúncios

    • Prioridade de compra em lançamentos

    • Mais recursos no app do Afinador

    • Atendimento Prioritário

    • Descontos nos produtos Cifra Club

    • Ajude a produzir mais conteúdo

    00:00 / 00:00

    Cifra Club Pro

    Aproveite o Cifra Club com benefícios exclusivos e sem anúncios
    Cifra Club Pro
    Aproveite o Cifra Club com benefícios exclusivos e sem anúncios
    OK