Cifra Club

Natsuhiboshi

Naruto

Cifra: Principal (violão e guitarra)
tom: F
 Am                   F                 Dm                  E7
E|--------------0------------------0---------------1--3------------------0---|
B|-----------1------------------1---------------3---------------------0------|
G|--------2------------------2---------------2---------------------1---------|
D|-----2------------------3---------------0---------------------0------------|
A|--0------------------3-------------------------------------2---------------|
E|---------------------------------------------------------------------------|

   Am                 F                  G                 Am
E|--------------0------------------0------------------3------------------0---|
B|-----------1------------------1------------------3------------------1------|
G|--------2------------------2------------------0------------------2---------|
D|-----2------------------3------------------0------------------2------------|
A|--0------------------3-------------------------------------0---------------|
E|----------------------------------------3----------------------------------|

Am                F
Natsuhiboshi naze a--kai?
Dm                     E7
Yuube kanashii yume wo miita
Am        F
Naite hanash*ta
G      Am
Akai me yo

Am                F
Natsuhiboshi naze mayou
Dm               E7
Kieta warashi wo sagashiteru
Am         F    G      Am
Dakara kanashii yume wo miru
00:00 / 00:00
Outros vídeos desta música
Repetir
Outros vídeos desta música
Composição de Toshiro Masuda
Colaboração e revisão:
  • Luca Brito
  • Gabriel Jesus
3.079 exibições
    • ½ Tom
    • A
    • Bb
    • B
    • C
    • Db
    • D
    • Eb
    • E
    • F
    • F#
    • G
    • Ab
  • Adicionar à lista

    0 comentários

    Ver todos os comentários

    Conseguiu tocar?

    4 Tocaram 0 Ainda não

    Grave um vídeo tocando Natsuhiboshi e nos envie!

    00:00 / 00:00

    Cifra Club Pro

    Aproveite o Cifra Club com benefícios exclusivos e sem anúncios
    Cifra Club Pro
    Aproveite o Cifra Club com benefícios exclusivos e sem anúncios
    OK