Cifra Club

Sadness and Sorrow

Naruto

Cifra: Simplificado
exibições 41.760
Tom: G
E|-----3-2----------------------------------------|
B|--0-------3-------------------------------------|
G|------------------------------------------------|
D|------------------------------------------------|
A|------------------------------------------------|
E|0-----------------------------------------------|

E|-----3-2----------------------------------------|
B|--0-------0-------------------------------------|
G|------------------------------------------------|
D|------------------------------------------------|
A|------------------------------------------------|
E|0-----------------------------------------------|

E|----2-0------0-3-5-0---3----2-3-5--0--7---5-----|
B|--------0---------------------------------------|
G|------------------------------------------------|
D|------------------------------------------------|
A|------------------------------------------------|
E|------------------------------------------------|

E|----2-0----0-3-5-0---3----2-3-5-----------------|
B|--------0-----------------------3----5----------|
G|------------------------------------------------|
D|------------------------------------------------|
A|------------------------------------------------|
E|------------------------------------------------|

E|-0-2-3---5-7--0--3-2---------2---0------0-3-5-3-2---|
B|----------------------3--5-----------0------------0-|
G|----------------------------------------------------|
D|----------------------------------------------------|
A|----------------------------------------------------|
E|----------------------------------------------------|

E|0-----0-5-10-10-12 10 12 10-10--5-3 0-----------0-3-|
B|---------------3---5------------------3-0-3-0-3-----|
G|----------------------------------------------------|
D|----------------------------------------------------|
A|----------------------------------------------------|
E|----------------------------------------------------|

E|--3---0-3-0-3-7-5---3--3-0---------------0-3-0-|
B|---------------------------3---------0-3-------|
G|---------------------------------0-2-----------|
D|-------------------------------2---------------|
A|-----------------------------------------------|
E|-----------------------------------------------|

E|-------0-0-------------------------------------|
B|---3-3-------3-3-3-----------------------------|
G|-----------------------------------------------|
D|-----------------------------------------------|
A|-----------------------------------------------|
E|-----------------------------------------------|

E|--5-7-0-3--2----0------------------------------|
B|--------------------3-0------------------------|
G|------------------0----------------------------|
D|-----------------------------------------------|
A|-----------------------------------------------|
E|-----------------------------------------------|

E|--3-5-3-2---7--7----5--5-7-0-3-2----0----------|
B|----------------------------------------3-0----|
G|--------------------------------------0--------|
D|-----------------------------------------------|
A|-----------------------------------------------|
E|-----------------------------------------------|

E|--3-5-3-0-----0--------------------------------|
B|-----------0-----------------------------------|
G|-----------------------------------------------|
D|-----------------------------------------------|
A|-----------------------------------------------|
E|-----------------------------------------------|
Acordes para:
    Colaboração e revisão:
    • Igor Oliveira
    • Joao Almeida
    • Alisson Florêncio

    0 comentários

      mostrar mais comentários

      Conseguiu tocar?

      25tocaram1ainda não

      Grave um vídeo tocando Sadness and Sorrow e mande pra gente!

      00:00 / 00:00
      outros vídeos desta música
      repetirqualidadeautomática
      Outro vídeos desta música
        00:00 / 00:00
        automática
        OK