Cifra Club

Sadness and Sorrow

Naruto

Cifra: Simplificado
exibições 35.993
Tom: G
E|-----3-2----------------------------------------
B|--0-------3-------------------------------------
G|------------------------------------------------
D|------------------------------------------------
A|------------------------------------------------
E|0-----------------------------------------------

E|-----3-2----------------------------------------
B|--0-------3-------------------------------------
G|------------------------------------------------
D|------------------------------------------------
A|------------------------------------------------
E|0-----------------------------------------------

E|----2-0------0-3-5-0---3----2-3-5--0--7---5--------
B|--------0-------------------------------------------
G|----------------------------------------------------
D|----------------------------------------------------
A|----------------------------------------------------
E|----------------------------------------------------

E|----2-0----0-3-5-0---3----2-3-5--------------------------
B|--------0-----------------------3----5-------------------
G|---------------------------------------------------------
D|---------------------------------------------------------
A|---------------------------------------------------------
E|--------------------------------------------------------

E|----0-2-3---5-7--0--3-2---------0-2-3---5-7--0--3-2-----7-5---
B|-------------------------3--5------------------------3--------
G|--------------------------------------------------------------
D|--------------------------------------------------------------
A|--------------------------------------------------------------
E|--------------------------------------------------------------

E|---5--7--0--3--2------------0-2-3---5-7--0--3-2--------------
B|------------------3---5---------------------------3--5-----5-
G|-------------------------------------------------------------
D|-------------------------------------------------------------
A|-------------------------------------------------------------
E|-------------------------------------------------------------
Acordes para:
    Colaboração e revisão:
    • Joao Almeida
    • Alisson Florêncio

    0 comentários

      mostrar mais comentários

      Conseguiu tocar?

      22tocaram1ainda não

      Grave um vídeo tocando Sadness and Sorrow e mande pra gente!

      00:00 / 00:00
      outros vídeos desta música
      repetirqualidadeautomática
      Outro vídeos desta música
        00:00 / 00:00
        automática
        OK