Notificações Amigos pendentes

      Naruto

      Sadness and Sorrow

      18.563 exibições
      Tom: A (com acordes na forma de )
      
      -------------------------------------------
      -------------------------------------------
      -------------------------------------------
      ---0--0--3--2----0-------0--0--3--2----0---
      -------------------------------------------
      -------------------------------------------
      
      
      ----------------------------------------------------
      ----------------------------------------------------
      ----------------------------------------------------
      ----------------------------------------------------
      -------0--------------------------------------------
      ---2^0-------0--3--5--0----3---0--2--3--5--7----5---
      
      
      -----------------------------------------------
      -----------------------------------------------
      -----------------------------------------------
      -----------------------------------------------
      -------0---------------------------------------
      ---2^0-------0--3--5--0----2---3--5--3--2--0---
      
      
      ------------------------------
      ------------------------------
      ------------------------------
      ------------------------------
      ------------------------------
      ---0--2--3--5--7--0--3----0---
      
      
      ----------------------------------
      ----------------------------------
      ----------------------------------
      ----------------------------------
      ----------------------------------
      ---0--2--3--5--7--0--5----7---5---
      
      
      -------------------------------
      -------------------------------
      -------------------------------
      -------------------------------
      -------------------------------
      ---5--7--5--3----2---0--1--2---
      
      
      ---------
      ---------
      ---------
      ---0-----
      ----0----
      -----0---
      
        Composição: InstrumentalColaboração e revisão:
        • Vaisefudo

        Comentários 5

        140 .
        140 cancelar

        conseguiu tocar?

        • •••
        thomas4.938 visualizações
          ver covers de outras músicas »
          0:00 / 0:00

          Capítulos

            1 versão de gaita exibições contribuição e correção
            1 versão de partiturasformatodownloadscontribuição
            play/pausefechar subir/descer velocidade
            6ª corda E5ª corda A4ª corda D3ª corda G2ª corda B1ª corda E
              acordes
              publicidade
              fechar
              ok