Cifra Club

Boas Festas

Natal

Cifra: Principal
exibições 21.035
Tom: C
(G)        C   F            C  A7
    Anoiteceu,    o sino gemeu
             D7   G                C    (G)
E a gente ficou     feliz   a    rezar 
C                F              C   A7
     Papai Noel     vê se você tem    
              D7       G                 C     (G)
A fe..li..ci..da..de        pra você me dar

C                                                          Em    Ebº Dm
Eu  pensei  que  todo   mundo   fosse     filho     de  papai    No..el
G7                       Dm
Vem assim Fe..li...ci..  da.de 
                         G7                             C  (G)
Eu  pensei que fosse    uma     brincadeira      de   papel

                      C                          Em       Ebº  Dm
Já faz tempo que eu pedi      mas o  meu papai Noel      não vem 
G7                             Dm
Com cer.te....za     já    morreu 
                          G7                                  C
Ou  então   fe...li....ci.da....de    é     brinquedo que não tem


E|---5-7-8~-7-8-7-5--------5----------------------|
B|-8-----------------8~-8----8-6-5~---------------|
G|----------------------------------5-7-5-7-5~----|
D|------------------------------------------------|
A|------------------------------------------------|
E|------------------------------------------------|

E|---5-7-8~-7-8-7-5--------5----------------------|
B|-8-----------------8~-8----8-6-5~---------------|
G|----------------------------------5-7-5-7-5~----|
D|------------------------------------------------|
A|------------------------------------------------|
E|------------------------------------------------|

E|-------------------------------------------------------|
B|-8--6--5-----5--6--8--5--8--5--8--5--8--5--8~--7~--6~--|
G|----------7--------------------------------------------|
D|-------------------------------------------------------|
A|-------------------------------------------------------|
E|-------------------------------------------------------|

E|------------------------------------------------------5-7--7--5-------|
B|--6--6--6--8--6--5-----------------5---------------8-------------8--5-|
G|--------------------7--7--7--7--7-----7--5--4--4----------------------|
D|----------------------------------------------------------------------|
A|----------------------------------------------------------------------|
E|----------------------------------------------------------------------|

E|-------------------------------------------------------|
B|-8--6--5-----5--6--8--5--8--5--8--5--8--5--8~--7~--6~--|
G|----------7--------------------------------------------|
D|-------------------------------------------------------|
A|-------------------------------------------------------|
E|-------------------------------------------------------|

E|------------------------------------------------------5-7--7--5-----8-|
B|--6--6--6--8--6--5-----------------5---------------8-------------8----|
G|--------------------7--7--7--7-------7--5--4--4-----------------------|
D|----------------------------------------------------------------------|
A|----------------------------------------------------------------------|
E|----------------------------------------------------------------------|
Acordes para:
    Composição: Assis ValenteColaboração e revisão:
    • JULIO SALDANHA
    • Jonatas Cardoso

    0 comentários

      mostrar mais comentários

      Conseguiu tocar?

      1tocaram0ainda não

      Grave um vídeo tocando Boas Festas e mande pra gente!

      00:00 / 00:00
      outros vídeos desta música
      repetirqualidadeautomática
      Outro vídeos desta música
        00:00 / 00:00
        automática
        OK