Cifra Club

Aprenda

Dim Go Bel

Natal

Cifra: Principal (violão e guitarra)
tom: A
  A
dim go bel dim go bel ja acabou papel

E|-9-9-9-9-9-9-9-12-5-7-9-------------
B|------------------------------------
G|------------------------------------
D|------------------------------------
A|------------------------------------
E|------------------------------------

 D           A           E          A
não faz mal,não faz mal limpa com jornal

E|-10-10-10-9-9-9-12-9-7-5------------
B|------------------------------------
G|------------------------------------
D|------------------------------------
A|------------------------------------
E|------------------------------------

 A
o jornal ta caro

E|------------------------------------
B|-7-14-12----------------------------
G|---------14-9-----------------------
D|------------------------------------
A|------------------------------------
E|------------------------------------

           D
caro pra juju

E|------------------------------------
B|-7-14-12----------------------------
G|---------14-11----------------------

                E
o que eu vou fazer

E|------------12----------------------
B|-7-14-12----------------------------
G|---------14-------------------------
D|------------------------------------
A|------------------------------------
E|------------------------------------

              A
pra limpar o meu ...

E|-12-14-12-9-7-5---------------------
B|------------------------------------
G|------------------------------------
D|------------------------------------
A|------------------------------------
E|------------------------------------
Compositor não encontrado.
Colaboração e revisão:
  • danilo g.g
5.816 exibições
    • ½ Tom
    • A
    • Bb
    • B
    • C
    • Db
    • D
    • Eb
    • E
    • F
    • F#
    • G
    • Ab
  • Adicionar à lista

    0 comentários

    Ver todos os comentários
    00:00 / 00:00
    Outros vídeos desta música
    Repetir Qualidade Automático
    Outros vídeos desta música
    00:00 / 00:00
    Automático

    Cifra Club Pro

    Aproveite o Cifra Club com benefícios exclusivos e sem anúncios
    Cifra Club Pro
    Aproveite o Cifra Club com benefícios exclusivos e sem anúncios
    OK