Cifra Club

Forasteiro

Natiruts

Cifra: Principal
exibições 499.405
Tom: G
Intro 2x: G  Am7

      G     Am7
Forasteiro no litoral
    G      Am7
Nasci no planalto central
    G      Am7
Nas ondas não mando muito bem
    Bm7          Am7
Sou aprendiz daquela que me quer bem
Em                 Cm7
   Se ela voltar, volto também
Em               Cm7
  Se ela ficou, fico também
Em               Cm7
  Se ela remou, quero remar
Em                Cm7
  Se ela gostou, gosto com ela
Am7                 D7
  Quero aprender, ela quer me ensinar
Bm7                E
  Todo segredo das ondas do mar
Am7                      Cm7
  Será que ela gosta de mim

        G     Am7
Já sou local no litoral
    G        Am7
Saudade do planalto central
    G              Am7
Nas ondas até que já estou mandando bem
     Bm7              Am7
Pois aprendi o valor que elas têm
Em               Cm7
  Quero voltar pro interior
Em                    Cm7
  Horizonte sem fim, cerrado nativo
Em                            Cm7
  Será que ela gosta de mim, comigo quer voltar
Em               Cm7
  Quer aprender segredos de lá
Am7                      D7
  Muitas coisas sonhei, momentos vivi
Bm7               E
  No litoral e no interior do país
Am7             D7    Bm7           E
  Ela gosta de mim,   hoje sou assim
Am7              D7
  Filho do sol  das ondas do mar
Bm7                E7
  Servo da mata nativa
Am7                   Cm7
  Quero o mundo  pra mim

Solo de Gaita: G  Am7

Eb7M    Cm7     G7M
  Olha, é o sol
Eb7M    Cm7     G7M
  Olha, é o céu
Eb7M    Cm7     G7M
  Olha, é o amor

Solo: Eb7M  Cm7  G7M
E|-----------------------------------------|
B|--------------------------------8-10-11~-|
G|---------------7-8-7h8p7---8-10----------|
D|--------7-8-10---------------------------|
A|-6-8-10----------------------------------|
E|-----------------------------------------|

E|-11-10-11-10--8h10--8b10-8rb-7~----------|
B|-----------------------------------------|
G|-----------------------------------------|
D|-----------------------------------------|
A|-----------------------------------------|
E|-----------------------------------------|

E|-14-14-14/15---15-------15-------------------|
B|------------------15b17----15b17-15b17-15b17-|
G|---------------------------------------------|
D|---------------------------------------------|
A|---------------------------------------------|
E|---------------------------------------------|

E|-------------------------------------------------|
B|-15rb-12-------15--------------------------------|
G|---------14b16----14b16----14rb-14-12--12--12--12|
D|-------------------------------------14--14--14--|
A|-------------------------------------------------|
E|-------------------------------------------------|

E|-----------------------------------------|
B|-------15--------------------------------|
G|-14h16----14br---12--12------------------|
D|---------------14--14--14--12------------|
A|-----------------------------14/12-------|
E|-----------------------------------------|

E|---------------------------------------------------------15-15----|
B|------------------------------15----------------15-15/17-------17-|
G|---------12--12---12-14-14/16----16/14-12-14/16-------------------|
D|-------12--14--14-------------------------------------------------|
A|-12-14------------------------------------------------------------|
E|------------------------------------------------------------------|

E|-17b19-15-17-17b19rb----15----15-15-14------|
B|---------------------17----17----------15---|
G|-----------------------------------------14-|
D|--------------------------------------------|
A|--------------------------------------------|
E|--------------------------------------------|

E|----------------------------------------------------------|
B|-15b17rb-15-15-13-12-13-12----------------15--------------|
G|--------------------------12---12-14-14/16--16/14-12-14-12|
D|----------------------------14----------------------------|
A|----------------------------------------------------------|
E|----------------------------------------------------------|

E|-------------------------------------------------|
B|-------------------------------------------------|
G|-14/16-12--12-14-12-14-12--14b16-----15b17rb--12-|
D|---------14--------------------------------------|
A|-------------------------------------------------|
E|-------------------------------------------------|
Acordes para:

    0 comentários

      mostrar mais comentários

      Conseguiu tocar?

      40tocaram0ainda não

      Grave um vídeo tocando Forasteiro e mande pra gente!

      00:00 / 00:00
      outros vídeos desta música
      repetirqualidadeautomática
      Outro vídeos desta música
        00:00 / 00:00
        automática
        OK