Cifra Club

Leve Com Você

Natiruts

Cifra: Principal
exibições 472.097
Tom: C
Intro (6x): Am  F

Riff:
    Am                         F         Am
E|---------------------------/-----/-----8--8--8--8--8-------------|
B|---------------------------/-----/-----10-10-10-10-10------------|
G|----------------5----------/-----/-----9--9--9--9--9-------------|
D|-----7-----5h7-----7-----5-/-----/-----10-10-10-10-10------------|
A|--------7-----------7------/-8---/-------------------------------|
E|--5------------------------/-----/-------------------------------|

 Am         F
Leve com você
 Am           F
Só o que foi bom
Am         F
Ódio e rancor
            Dm    Em
Não dão em nada, nada
Am           F
Ouço aquele som
 Am          F
Lembro de você
 Am      F
Como acabou
 Em            Dm
Mas não tem nada não
    Em                          Dm
Só guardo o que foi bom no meu coração
    Em                     F
O amor é como o sol, sabe como renascer

 Am        F
Sinto o calor
 Am           F
De mais um verão
 Am         F
Tudo ganha cor
      Em                  Dm
E de nada vai valer lamentar a dor
           Em                           Dm
Nós temos que seguir em frente, a vida não parou
           Em                        Dm
Vai ser difícil de esquecer tudo o que passou
             Em                       F            G
Mas são as quedas que ensinam a cultivar o nosso amor

Refrão 2x:
 Am     Em
Pensar
            Dm    Em
No nosso futuro


(2ª parte da música)

Em
E ser feliz

Solo:
E|---------------------------------------------8-8-8-10------|
B|--5-----5-5-5-6----5-5---------------8b10-------------10/0-|
G|--7b9-----------7----7b9---7--7----------------------------|
D|-----------------------------9-----------------------------|
A|-----------------------------------------------------------|
E|-----------------------------------------------------------|

E|--------8--------9--------8----8----8------12p8-----11p8-----10p8-----8p7-------|
B|--10-10-----10-10----10-10---10---10---10--------10-------10-------10----10-9---|
G|------------------------------------------------------------------------------9-|
D|--------------------------------------------------------------------------------|
A|--------------------------------------------------------------------------------|
E|--------------------------------------------------------------------------------|

E|-------------------------------------------------------------------------5-|
B|--8p7---7--------------------------------------------------------------7---|
G|-----9------7-7h8p7-5-----7b9r7-7p5-----5--5h6p5--------------------5------|
D|------------------------------------7-5----------7p5-------------7---------|
A|------------------------------------------------------7-5/6--9-------------|
E|---------------------------------------------------------------------------|

E|--8/12--8--------8---12/15--12----------12---15b17~~-|
B|---------10---10---------------13----13--------------|
G|------------9---------------------14-----------------|
D|-----------------------------------------------------|
A|-----------------------------------------------------|
E|-----------------------------------------------------|
Acordes para:
    Composição: NatirutsColaboração e revisão:

    0 comentários

      mostrar mais comentários

      Conseguiu tocar?

      21tocaram0ainda não

      Grave um vídeo tocando Leve Com Você e mande pra gente!

      00:00 / 00:00
      outros vídeos desta música
      repetirqualidadeautomática
      Outro vídeos desta música
        00:00 / 00:00
        automática
        OK