Cifra Club

Um Anjo do Céu

Natiruts

Cifra: Principal
exibições 220.536
Tom: B
(intro 4x)   B  F#  E  B

(riff 4x)
E|-2--------------------2--------------------|
B|------0-4-0-2/4-2~---------0-4-0-2/4-0-----|
G|-------------------------------------------|
D|-------------------------------------------|
A|-------------------------------------------|
E|-------------------------------------------|

B
Um anjo do céu

Trouxe pra mim
            C#m
É a mais bonita
        E     F#
A jóia perfeita.
              B
Que é pra eu cuidar
Que é pra eu amar
            C#m
Gota cristalina
             E    F#
Tem toda inocência

 B            F#
Vem, oh! meu bem
           E
Não chore não
                B
Vou cantar pra você. (2x)

E|--------------------------------------------------------|
B|--------------------------------------------------------|
G|-----4-------4------------4---4--4/6-4------------------|
D|-4h6---6-4-6--6-4-----4h6---6---------------------------|
G|--------------------------------------------------------|
E|--------------------------------------------------------|

E|--------------------------------------------------------|
B|--------------------------------------------------------|
G|-------4-6-6/8-6-4-6/8--------4-6-6/8-6-8-8/9--6b7r6b7--|
D|-6-4-6--------------------4-6---------------------------|
G|--------------------------------------------------------|
E|--------------------------------------------------------|

         B
Um anjo do céu
Que me escolheu
              C#m
Serei  o teu porto
             E   F#
Guardião da pureza

              B
Que é pra eu cuidar
que é pra eu amar
              C#m
Gota cristalina
             E    F#
Tem toda inocência
 B           F#
Vem oh! meu bem
           E
Não chore não
                B
Vou cantar pra você. (4x)

 B            F#
Vem oh! meu bem
           E
Não chore não
                  B7
Vou cantar pra você.
Acordes para:
    Colaboração e revisão:

    0 comentários

      mostrar mais comentários

      Conseguiu tocar?

      25tocaram0ainda não

      Grave um vídeo tocando Um Anjo do Céu e mande pra gente!

      00:00 / 00:00
      outros vídeos desta música
      repetirqualidadeautomática
      Outro vídeos desta música
        00:00 / 00:00
        automática
        OK