Cifra Club

Vôo do Carcará

Natiruts

Tab de baixo: Principal
   F#m				    C#m
G|--------------------------------|---------------------------------|
D|--------------------------------|------------6-6--------------6-6-|
A|------------4-4-------------4-4-|-4-4-4--7-7-------4-4-4--7-7-----| 
E|-2-2-2--5-5------2-2-2--5-5-----|---------------------------------|

   F#m				    C#m 
G|--------------------------------|---------------------------------||
D|--------------------------------|------------6-6------------------||
A|------------4-4-------------4-4-|-4-4-4--7-7-----7-7--4-4--7-7-4--|| 
E|-2-2-2--5-5------2-2-2--5-5-----|---------------------------------||
				   **(Este compasso é tocado assim
                                    apenas uma vez)
                                    
                                    C#m **(A partir da segunda
                                         execução ele é tocado assim)
                                 G|---------------------------------||
                                 D|------------6-6----------6-6-----||
                                 A|-4-4-4--7-7-----7-7--4-4-----7-4-|| 
                                 E|---------------------------------||

   F#m					 C#m
G|---------------------------4-4-4-----|---------------------------------------||
D|----------------6-6-6--4-4-------7-7-|-6-6-6----------7-7--6-6-------------4-||  (4X)
A|------------4-4----------------------|-------7-7--4-4----------7-7--4-4--7---|| 
E|-2-2-2--5-5--------------------------|---------------------------------------||

Volta para o início e repete tudo
00:00 / 00:00
Outros vídeos desta música
Repetir
Outros vídeos desta música
Compositor não encontrado.
Colaboração e revisão:
  • Frank Neres
14.872 exibições

0 comentários

Ver todos os comentários

Entre para oCifra Club PRO

Tenha acesso a benefícios exclusivos no App e no Site

  • Chega de anúncios

  • Prioridade de compra em lançamentos

  • Mais recursos no app do Afinador

  • Atendimento Prioritário

  • Descontos nos produtos Cifra Club

  • Ajude a produzir mais conteúdo

00:00 / 00:00

Cifra Club Pro

Aproveite o Cifra Club com benefícios exclusivos e sem anúncios
Cifra Club Pro
Aproveite o Cifra Club com benefícios exclusivos e sem anúncios
OK