Cifra Club

Aprenda

Make It Work

Ne-Yo

Cifra: Principal (violão e guitarra)
Tom: A#
Heres what i heard for most of the song..........

E |-------------------3----------------------|
B |--1h3h4-3-1-----------3---1-3--------1----|
G |------------3-1---------------3----3---1--|
D |------------------------------------------|
A |------------------------------------------|
E |------------------------------------------|

E |----1-3--------3-6------------------------|
B |--4-----4-1--------3----1-3--------1------|
G |----------------------------3----3---1----|
D |------------------------------------------|
A |------------------------------------------|
E |------------------------------------------|

just repeat throughout......
Colaboração e revisão:
  • Fernando Silva
2.833 exibições
    • ½ Tom
    • A
    • Bb
    • B
    • C
    • Db
    • D
    • Eb
    • E
    • F
    • F#
    • G
    • Ab
  • Adicionar à lista

    0 comentários

    Mostrar mais comentários

    Conseguiu tocar?

    0 Tocaram 0 Ainda não

    Grave um vídeo tocando Make It Work e mande pra gente!

    00:00 / 00:00
    outros vídeos desta música
    repetir qualidade Automático
    Outros vídeos desta música
    00:00 / 00:00
    Automático
    OK